Red Hot Chili Peppers

Shes Only 18 Bass Tabs



More from Red Hot Chili Peppers

Red Hot Chili Peppers Tabs
Red Hot Chili Peppers Chords
Red Hot Chili Peppers Bass
Red Hot Chili Peppers Lyrics




Verse
G-------3-------3---5--------3-------3-------|
D----3-5-5-3-3-5--5-------3-5-5-3-3-5--5-3---|
A-3h5-------5----5-----3h5-------5----5------|x6
E--------------------------------------------|

Chorus
G|-------------------------------------|
D|----------------------------/3-3-3-3-|
A|-3--3--3/6--6-6-6-6------------------|
E|--------------------3--3--3----------|x3

G|------------------------------------5h7-7-7-7-7-7-7-7-|
D|------------------------------------------------------|
A|-3--3--3/6--6-6-6-6-5-5-5-5-5-5-5-5-------------------|
E|------------------------------------------------------|

Verse 4x
Chorus

Bridge
G-------------------------------|
D-----------------3-3-3---------|
A-3-3-33-1-1--1-1-------33--0-2-|
E--------------------------3----|

G-------------------------------|
D-----------------3-3-53--------|
A-3-3-33-1-1--1-1-------33--0-2-|
E--------------------------3----|

G-------------------------5-3------|
D--------------3-3---3-5-3---5-3---|
A-3-33-33-1-1------3-------------5-|
E----------------------------------|

G-------------------------------|
D-----------------3-3-333333333-|
A-3-3-33-1-1--1-1---------------|
E-------------------------------|

Chorus



Get this song at amazon.com      Ebay     Ringtones Ringtones  


Learn to play: Songwriting, Piano, Harmonica, Guitar
More Red Hot Chili Peppers lyrics available at Muzikum

Related Red Hot Chili Peppers Bass Tabs

Universally Speaking bass
F U bass
Religion bass
Rollercoaster Of Love bass
Behind The Sun bass
Emit Remmus bass
Quixotic Elixer bass
So Much I bass
Otherside ( Correct ) bass
The Zephyr Song bass
Chili Peppers Blow bass
Hump De Bump Bass bass
Give It Away (beginners Alternative) bass
Pea (live) bass
Carbon bass
Other Side (%500 Perfect) bass
Mellowship Slinky bass
Song: Savior bass
By The Way (live) bass
This Is The Place Intro bass


Guitar Tabs









All tabs are property and copyright of their owners. All tabs provided for educational purposes only. Privacy Policy, DMCA