Red Hot Chili Peppers

She's Only 18 (correct) Bass Tabs



More from Red Hot Chili Peppers

Red Hot Chili Peppers Tabs
Red Hot Chili Peppers Chords
Red Hot Chili Peppers Bass
Red Hot Chili Peppers Lyrics




Song: She's Only 18
Artist: Red Hot Chili Peppers
Album: Stadium Arcadium

Tabbed By: Marcos Prieto (marcrow_ps@yahoo.es)

Verse:

Dm
+ + + + + + + +
G|----3-----3---5-|----3-----3-----|
D|--35-53-35--5---|--35-53-35--5-3-|
A|-5-----5---5----|-5-----5---5----|
E|----------------|----------------|

Chorus:

Cm D# Gm F
+ + + + + + + +
G|----------------|--------------------------------|
D|--------/-------|--------------------------------|
A|3---3--3666-666-|--------------------------------|
E|----------------|3-------3-----3/131313--1313\\\-|

Cm D# Gm F
+ + + + + + + +
G|----------------|--------------------------------|
D|--------/-------|----------------3-3-------------|
A|3---3--3666-666-|--------------------------------|
E|----------------|3-------3---3-1-----------------|

Cm D# Gm F
+ + + + + + + +
G|----------------|--------------------------------|
D|--------/-------|--------------------------------|
A|3---3--3666-666-|--------------------------------|
E|----------------|3-------3-----3/131313--x-13\\\-|

_____ End 1 ___
\
Cm D# Dm Dm
+ + + + + + + + + + + +
G|----------------|----------------|7-7-7-777-7-7-7-|
D|--------/-------|---------------7|----------------|
A|3---3--3666-666-|5-5-5-5-5-5-5-5-|----------------|
E|----------------|----------------|----------------|

____ End 2 ____ ____ End 3 ____
\ \
Dm Dm
+ + + + + + + +
G|7-7-7-77777-777-| |777-7-77~-------|
D|----------------| |----------------|
A|----------------| |----------------|
E|----------------| |----------------|

Solo:

Cm Bb F Cm Cm Bb F Cm
+ + + + + + + + + + + + + + + +
G|----------------|----------------|----------------|----------------|
D|----------------|3---3--3--------|----------------|33--3-/53-------|
A|3---3--3-11-1---|---------33-3--1|3---3-33r11-1---|----------33---1|
E|----------------|-------------13-|----------------|-------------13-|

Cm Bb F Cm Cm Bb F
+ + + + + + + + + + + + + + + +
G|----------------|----------3-5---|----------------|----------------|
D|----------------|3---3----5-5-53-|----------------|3---333-33-3333-|
A|3---3--3-11-1---|-------3-------6|3---3-33r11-1--1|----------------|
E|----------------|----------------|----------------|----------------|

Song structure:

Verse (x6).
Chorus (with End 1).
Verse (x5)
Chorus (with End 2).
Solo.
Chorus (with End 3).

__ _ __ __ _____ _____ _____
/ | / | / | / `\ / ___/ / __ / ( __/
/ |/ | / /|| / /) / // / / // \ \
/ /| /|| / /^|| / /|| //___ / / // ___) )
/ / | / || / / || / / || / / / ^^/ / /
^^^^^^^^^^^^^^^^^^^^^^^^^^^^^^^^^^^^^^^^^^^^^^^^^



Get this song at amazon.com      Ebay     Ringtones Ringtones  


Learn to play: Songwriting, Piano, Harmonica, Guitar
More Red Hot Chili Peppers lyrics available at Muzikum

Related Red Hot Chili Peppers Bass Tabs

Sexy Mexican Maid bass
Scar Tissue bass
By The Way (perfect) bass
Walkin On Down The Road bass
My Friends bass
Out Of Range bass
All Around The World bass
Warlocks bass
Easily With Triads bass
Californication (perfect) bass
Rare Bass Solo bass
Readymade bass
Snow Hey Oh bass
Dani California (correct) bass
Phat Dance bass
Midnight bass
True Men Dont Kill Coyotes (full) bass
So Much I bass
Can't Stop bass
Me And My Friends bass


Guitar Tabs









All tabs are property and copyright of their owners. All tabs provided for educational purposes only. Privacy Policy, DMCA