Red Hot Chili Peppers

She Looks To Me Tabs



More from Red Hot Chili Peppers

Red Hot Chili Peppers Tabs
Red Hot Chili Peppers Chords
Red Hot Chili Peppers Bass
Red Hot Chili Peppers Lyrics



She Looks To Me Tab by Red Hot Chili Peppers, www.Ultimate-Guitar.Com



Tabbed by:Julian Bendixen

Email: webmaster at tabs-database.com.com







e|---5-----5-----9----------9-------7-------7-----14----------14--------|

B|-----7-------7------10---------10-----9-------9-------14----------14--|

G|-------6---6-----11----11---11------9---9---9------14----14----14-----|

D|----------------------------------------------------------------------|

A|----------------------------------------------------------------------|

E|----------------------------------------------------------------------|



e|---5-----5-----9---------9-----------7--------------------------------|

B|-----7-------7------10--------10-----9--------------------------------|

G|-------6---6-----11----11--11--------9--------------------------------|

D|-------------------------------------9--------------------------------|

A|----------------------------------------------------------------------|

E|----------------------------------------------------------------------|Added by tabs-database.com and our distinguished partners
Get this song at amazon.com      Ebay     Ringtones Ringtones  


Learn to play: Songwriting, Piano, Harmonica, Guitar
Also available at Muzikum: Red Hot Chili Peppers - She Looks To Me lyrics

Related Red Hot Chili Peppers Tabs

This Is The Place Bass tabs
Over Funk tabs
We Believe tabs
Body Of Water tabs
Warm Tape tabs
Out In La (2) tabs
Taste The Pain tabs
Venice Queen (2) tabs
Universally Speaking Solo tabs
Dani California Guitar Tab tabs
Good Time Boys tabs
Organic Beat tabs
Universally Speaking tabs
Havana Affair tabs
Give It Away Live tabs
Storm In A Teacup Bass tabs
Bicycle Song Bass tabs
Baby Appeal (2) tabs
The Handclapping Song Live tabs
River Of Avalon tabs


Guitar Tabs









All tabs are property and copyright of their owners. All tabs provided for educational purposes only. Privacy Policy, DMCA