Red Hot Chili Peppers

She Looks To Me Bass Tabs



More from Red Hot Chili Peppers

Red Hot Chili Peppers Tabs
Red Hot Chili Peppers Chords
Red Hot Chili Peppers Bass
Red Hot Chili Peppers Lyrics




Legend:
h: hammer on
p: pull
x: muted note
/: slide up
\: slide down

Intro:

G:---------------------------------------------------------------------------------------
D:-------------6-------------------------------------------------------------------------
A:-9---7---7-------9---7---7-------------------------------------------------------------
E:---------------------------------------------------------------------------------------

Verse:

G:---------------------------------------------------------------------------------------
D:---------------------------------------------------------------------------------------
A:-0-0-0-3-3-3-3---------------0-0-0-3-3-3-3---------------------------------------------
E:---------------3-3-3-1-1-1-3---------------3-3-3-1-1-1-3-------------------------------

Transition from Verse to Chorus:

G:---------------------------------------------------------------------------------------
D:---------------------------------------------------------------------------------------
A:-0-0-0-3-3-3---------------------------------------------------------------------------
E:-------------3-3-3-3-3-3-3-3-----------------------------------------------------------

Chorus:

G:---------------------------------------------------------------------------------------
D:-------------------6-6-------------------------------------------------/6-----------6--
A:-9-9-9-7-7-7-7-7-7-----9-7-9-9-9-7-7-7-7-7-7-------7-9-9-9-7-7-7-7-7-7----9-7---7-9----
E:---------------------------------------------9-9-9----------------------------9--------

G:---------------------------------------------------------------------------------------
D:---------------------------------------------------------------------------------------
A:-9-9-9-7-7---7-------------------------------------------------------------------------
E:-----------7---------------------------------------------------------------------------

Bridge:

G:-------------------------------------------------------------------------------2-------
D:---------2---------5-3-3-3-3-2-3-3-3-2-0-------------2---------5-3-3-3-3-2-3-3---3-3-2-
A:-0-0-0-0---3-3-3-3-----------------------3-2-0-0-0-0---3-3-3-3-------------------------
E:---------------------------------------------------------------------------------------

G:---------------------------------------------------------------------------------------
D:-0-------------------------------------------------------------------------------------
A:---3-2---------------------------------------------------------------------------------
E:---------------------------------------------------------------------------------------

For the guitar solo, play the verse riff with slight ad libs and
variations.

Outro:

G:---------------------------------------------------------------------------------------
D:----------------------/9-9-8----8-9----------------------------------------------------
A:-11-11-11-9-9-9-9-9-9--------11-----11-11-9/11-9-9-9-9-9-9----------9------------------
E:-----------------------------------------------------------11-11-11--------------------
Repeat three times, then do this:

G:--------------11-----------------------------------------------------------------------
D:---------------------------------------------------------------------------------------
A:-11-11-11-9-9----9-9-------------------------------------------------------------------
E:---------------------------------------------------------------------------------------

If you have any comments or corrections, please tell me. I would
like to know if I did something wrong. Thanks, and enjoy!!!!



Get this song at amazon.com      Ebay     Ringtones Ringtones  


Learn to play: Songwriting, Piano, Harmonica, Guitar
Also available at Muzikum: Red Hot Chili Peppers - She Looks To Me lyrics

Related Red Hot Chili Peppers Bass Tabs

Higher Ground (stevie Wonder Cover) bass
21st Century bass
On Mercury bass
Annie Wants A Baby bass
Why Dont You Love Me bass
Arpeggiating bass
Body Of Water bass
Charlie bass
Roller Coaster bass
Sexamaniac(cant Stop) bass
Out Of Range bass
Song: Savior bass
Catholic School Girls Rule bass
True Men Don't Kill Coyotes bass
Rolling Sly Stone Live bass
Nobody Weird Like Me bass
Emit Remmus bass
Hard To Concentrate bass
Backwoods bass
Subterranean Homesick Blues bass


Guitar Tabs









All tabs are property and copyright of their owners. All tabs provided for educational purposes only. Privacy Policy, DMCA