Red Hot Chili Peppers

She Looks To Me Bass Tabs



More from Red Hot Chili Peppers

Red Hot Chili Peppers Tabs
Red Hot Chili Peppers Chords
Red Hot Chili Peppers Bass
Red Hot Chili Peppers Lyrics



Song: She Looks To Me

Artist: Red Hot Chili Peppers

Album: Stadium Arcadium



Tabbed By: Marcos Prieto (webmaster at tabs-database.com.com)



Notation legend:



x -> mute.

\ -> slide up. \ It can be after or before the note, like 1h3,

/ -> slide down. | but if there's no enought space it can be

h -> hammer on. | over or down, like G|-13-...

p -> pull off. / D|--h-...

~ -> let ring.

r -> rest.

S -> slap.

P -> pop.

+ + -> the rhythm of the song, generally 4x4. If there are 2 digits notes

or there's no enough space, I lengthen it,

from (+ + ...) to (+ + ...)

|------| -> repeat this a number of times, for example |3-3-3-3| x4

repeats 3-3-3-3 four times.





Intro:



F#m A (5) E G#m F#m A E

+ + + + + + + + + + + + + + + +

G|----------------|----------------|----------------|----------------|

D|4---------------|--------6-------|4---------------|----------------|

A|--------7-------|7---------------|--------7-------|7~--------------|

E|----------------|----------------|----------------|----------------|



Verse 1:



A C G F A C G F

+ + + + + + + + + + + + + + + +

G|----------------|----------------|----------------|----------------|

D|----------------|----------------|----------------|------------0---|

A|0---0--0-33-3--3|----------------|0---0--0-33-3--3|--------------32|

E|----------------|-x3-3--3-x1-1-3-|----------------|-x3-3--3-01-----|



A C G F A C G F

+ + + + + + + + + + + + + + + +

G|----------------|----------------|----------------|----------------|

D|----------------|----------------|----------------|----------------|

A|0---0--0-33-3--3|----------------|0---0--0-33-3--3|--------------23|

E|----------------|-x3-3--3-01-1-3-|----------------|-x3-3--3-01-13--|



A C G F A C G F

+ + + + + + + + + + + + + + + +

G|----------------|----------------|----------------|----------------|

D|----------------|----------------|----------------|----------------|

A|0---0--0-33-3--3|--------------3-|0---0--0-33-3-35|----------------|

E|----------------|-x3-3--3-01-3---|----------------|3---3--33-3-3-3-|

S



Chorus 1:



F#m A (5) E F#m F#m A (5) E F#m

+ + + + + + + + + + + + + + + +

G|----------------|----------*-----|----------------|----------------|

D|4---4--4--------|---------x6-6-4-|4---4--4--------|----------------|

A|---------x7-7--7|-x7-7--7-------7|---------x7-7--7|-x7-7--7-x4----7|

E|----------------|----------------|----------------|----------------|



F#m A (5) E F#m F#m A (5) E

+ + + + + + + + + + + + + + + +

G|----------------|----------*-----|----------------|----------------|

D|4---4--4--------|---------x6-4---|464-4--4--------|----------------|

A|---------x7-7--7|-x7-7--7-----747|---------x7-7---|7~--------------|

E|----------------|----------------|---------------7|----------------|



* Quick hammer on -> 4h6



Verse 2:



A C G F A C G F

+ + + + + + + + + + + + + + + +

G|----------------|----------------|----------------|----------------|

D|----------------|----------------|----------------|-----------/20--|

A|0---0--0-33-3--3|--------------3-|0---0--0-33-3--3|--------------32|

E|----------------|-x3-3--3-01-1---|----------------|-03-3--3-01-----|



A C G F A C G F

+ + + + + + + + + + + + + + + +

G|----------------|----------------|----------------|----------------|

D|----------------|----------------|----------------|----------------|

A|0---0--0-33-3--3|--------------23|0---0--0-33-3-35|----------------|

E|----------------|-x3-3--3-01-1---|----------------|3---3--33-3-3---|



Chorus 2:



F#m A (5) E F#m F#m A (5) E F#m

+ + + + + + + + + + + + + + + +

G|----------------|----------h-----|----------------|----------------|

D|4---4--4--------|---------46-6-4-|4---4--4--------|----------------|

A|---------x7-7--7|-x7-7--7-------7|---------x7-7--7|-x7-7--7-x4-4-7-|

E|----------------|----------------|----------------|----------------|



F#m A (5) E F#m F#m A (5) E

+ + + + + + + + + + + + + + + +

G|----------------|-----------h----|----------------|----------------|

D|4---4--4--------|----------464---|4---4--4--------|----------------|

A|---------x7-7--7|-x7-7--7-----747|---------x7-77-357-7-7--77-7-7-7-|

E|----------------|----------------|----------------h/---------------|



Bridge:



A C F

+ + + + + + + + + + + + + + + +

G|----------------|----------------|----------------|----------------|

D|--------------2-|--------------5-|3---3---3---3-2-|3---3---3-2-----|

A|0---0---0---0---|3---3---3---3---|----------------|------------532-|

E|----------------|----------------|----------------|----------------|



A C F

+ + + + + + + + + + + + + + + +

G|----------------|----------------|----------------|-----2----------|

D|--------------2-|--------------5-|3---3---3---3-2-|3---3-3-2-0-----|

A|0---0---0---0---|3---3---3---3---|----------------|------------3---|

E|----------------|----------------|----------------|--------------0-|



Verse 3:



A C G F A C G F

+ + + + + + + + + + + + + + + +

G|----------------|----------------|----------------|----------------|

D|----------------|----------------|----------------|----------------|

A|0---0--0-33-3--3|----------------|0---0--0-33-3--3|------------3232|

E|----------------|-03-3--3-01-1-3-|----------------|-03-3--3-01-----|



A C G F A C G F

+ + + + + + + + + + + + + + + +

G|----------------|----------------|----------------|----------------|

D|----------------|------------20--|----------------|----------------|

A|0---0--0-33-3--3|--------------3-|0---0--0-33-3-33|----------------|

E|----------------|-03-3--3-01-----|----------------|-03-3--3-01-1---|



A C G F A C G F

+ + + + + + + + + + + + + + + +

G|----------------|----------------|----------------|----------------|

D|----------------|----------------|----------------|------------/---|

A|0---0--0-33-3--3|----------------|0---0--0-33-3--3|-----------35-32|

E|----------------|-03-3--3-01-1-3-|----------------|-03-3--3-01-----|



A C G F A C G F

+ + + + + + + + + + + + + + + +

G|----------------|----------------|----------------|----------------|

D|----------------|----------------|----------------|----------------|

A|0---0--0-33-3--3|----------------|0---0--0-33-3-35|----------------|

E|----------------|-03-3--3-01-1-3-|----------------|3---3--33-3-3---|



Chorus 3:



F#m A (5) E F#m F#m A (5) E F#m

+ + + + + + + + + + + + + + + +

G|----------------|----------h-----|----------------|----------------|

D|4---4--4--------|---------46-6-4-|4---4--4--------|----------------|

A|----------7-7--7|--7-7--7-------7|---------x7-7--7|-x7-7--7-x4-4-7-|

E|----------------|----------------|----------------|----------------|



F#m A (5) E F#m F#m A (5) E F#m

+ + + + + + + + + + + + + + + +

G|----------------|-----------h----|----------------|----------------|

D|4---4--4--------|----------464---|464-4--4--------|----------------|

A|---------x7-7--7|-x7-7--7-----747|---------x7-7---|7-7-7--7-77-7777|

E|----------------|----------------|--------------x7|-7--------------|



G#m B (5) F# G#m G#m B (5) F# G#m

+ + + + + + + + + + + + + + + +

G|----------------|-----------h----|----------------|----------------|

D|6---6--6--------|---------x686---|686--6--6-------|----------------|

A|---------x9-9--9|-x9-9-99------96|-------9-x9-9--9|-x9-9--9-x6-6-9-|

E|----------------|----------------|----------------|----------------|



G#m B (5) F# G#m G#m B (5) F# G#m

+ + + + + + + + + + + + + + + +

G|----------------|-----------h----|----------------|----------------|

D|6---6--6--------|---------x686-6-|686--6-66-------|----------------|

A|---------x9-9--9|-x9-9-99-----9-9|---------x9-9--9|-x9-9--9-x6-6-9-|

E|----------------|----------------|----------------|----------------|



G#m B (5) F# G#m G#m B (5) F# G#m

+ + + + + + + + + + + + + + + +

G|----------------|-----------h----|----------------|----------------|

D|6---6--6--------|---------x686-6-|686--6--6-------|----------------|

A|---------x9-9--9|-x9-9-99-----9-9|-------9-x9-9--9|-x9-9--9-x6-6-9-|

E|----------------|----------------|----------------|----------------|



G#m B (5) F# G#m G#m B (5) F#

+ + + + + + + + + + + + + + + +

G|----------------|-----------h----|----------------|----------------|

D|6---6--6--------|---------x686-6-|6----6--6------11----------------|

A|---------x9-9-99|-x9-9-99-----9-9|----------9-9-9-|9~--------------|

E|----------------|----------------|----------------|----------------|



__ _ __ __ _____ _____ _____

/ | / | / | / `\ / ___/ / __ / ( __/

/ |/ | / /|| / /) / // / / // \ \

/ /| /|| / /^|| / /|| //___ / / // ___) )

/ / | / || / / || / / || / / / ^^/ / /

^^^^^^^^^^^^^^^^^^^^^^^^^^^^^^^^^^^^^^^^^^^^^^^^^Added by tabs-database.com and our distinguished partners
Get this song at amazon.com      Ebay     Ringtones Ringtones  


Learn to play: Songwriting, Piano, Harmonica, Guitar
More Red Hot Chili Peppers lyrics available at Muzikum

Related Red Hot Chili Peppers Tabs

Cabron Bass tabs
Skinny Sweety Man tabs
Universally Speaking tabs
Tearjerker tabs
Califorication tabs
Californication tabs
So Much I Bass tabs
This Is The Place tabs
Can't Stop 2.0 + Lyrics tabs
Whatever We Want Bass tabs
Quixoticelixir Bass tabs
Porcelain Solo tabs
Tear (3) tabs
Backwoods tabs
Teenager In Love tabs
Naked In The Rain tabs
Cabron tabs
Animal Bar Bass tabs
No Chump Love Sucker tabs
Around The World tabs


Guitar Tabs









All tabs are property and copyright of their owners. All tabs provided for educational purposes only. Privacy Policy, DMCA