Red Hot Chili Peppers

Search And Destroy Bass Tabs



More from Red Hot Chili Peppers

Red Hot Chili Peppers Tabs
Red Hot Chili Peppers Chords
Red Hot Chili Peppers Bass
Red Hot Chili Peppers Lyrics



Artisit- Red hot chili peppers
Song- Search and destroy
from the Blood Sugar Sex Magik sessions
Originally by the Stooges
Tabbed by- Rory at http://magikflea.rhcpweb.com
Submitted by- adam russo romeo3112@hotmail.com

INTRO/VERSE

G--------------------------------|
D-------------------4-4-4-4------|
A--4--4----2--4-4-----------4-4--|
E---------4----------------------|

G-------------------------------------|
D-------------------2-----------------|
A--4-4-4-4-4-2-------0-0-0-0-0-0--2---|
E-------------------------------------|

BRIDGE ("I am the world's forgotten boy, the one who searches to destroy")

G------------------------------------------|
D------------------------------------------|
A--4-----4---2-----2------------------0--2-|
E-----4---------2------5-5-5--0---0--------|

CHORUS ("somebody gotta help me please...")

G------------------------------------------|
D------------------------------------------|
A------------------------------------2--4--|
E--2-2-2-2-2-2-2-2-2-2-2-2--4--------------|

G------------------------------------------|
D------------------------------------------|
A------------------------------------5--7--|
E--5-5-5-5-5-5-5-5-5-5-5-5--7--------------|

G-----------------------------------------|
D-----------------------------------------|
A-----------------------------------2--4--|
E--0-0-0-0-0-0-0-0-0-0-0-0--4-------------|

G---------------------------|
D---------------------------|
A---------------------------|
E--4-4-4-4-4-4-4-4-4-4-4-4--|

OUTRO ("forgotten boy...")

G---------------------------|
D---------------------------|
A--4-4-4-4-4-4-4-4-4-4-4-4--|
E---------------------------|

G---------------------------|
D---------------------------|
A--2-2-2-2-2-2-2-2-2-2-2-2--|
E---------------------------|

G---------------------------|
D---------------------------|
A--0-0-0-0-0-0-0-0-0-0-0-0--|
E---------------------------|

G---------------------------|
D---------------------------|
A--2-2-2-2-2-2-2-2-2-2-2-2--|
E---------------------------|

VARIATION ON OUTRO

G-------------------------------|
D----------4--2-----------------|
A--4--4-4--------4--2--2-2-2-2--|
E-------------------------------|

G-------------------------------|
D---------------0--2------------|
A--0--0-0--2--------2--2-2-2-2--|
E-------------------------------|


Section 2

Tabbed and submitted by- Adam Russo
email- romeo3112@hotmail.com

"Off The Map" DVD search and destroy outro session with flea and john.
I have only figured out the minnor intermission part, you have too
listen too the dvd to get the timing. If anyone can help me out with
the rest of fleas mayhem on stage perfomance (search and destroy "Off
The Map")it would be much appreciated.


Intermission

>play a few times
/ slide

E----------5>---------------------|
A-5>-/8>-7>-------5>--8>-7>-------|
D---------------------------------|
G-----------7>-5>-----------------|
|
|
'-> or 6


Really fast part where flea stands steadly concentrated
to the max before the break down

E---------------------------|
A---------------------------|
D---5--6--5--6--5--6--------| x hell knows how many times
G-00-00-00-00-00-00---------|






Get this song at amazon.com      Ebay     Ringtones Ringtones  


Learn to play: Songwriting, Piano, Harmonica, Guitar
Also available at Muzikum: Red Hot Chili Peppers - Search And Destroy lyrics

Related Red Hot Chili Peppers Bass Tabs

Wet Sand bass
Flea Solo (great!!) bass
Flea Bass Solo:arpeggiating bass
Emit Remmus bass
Snow Hey Oh bass
Bunker Hill bass
Walkabout bass
Mellowship Slinky In B Flat bass
Higher Ground (stevie Wonder Cover) bass
Catholic School Girls Rule bass
Save The Population bass
They're Red Hot bass
Easiliy bass
Make You Feel Better bass
Battleship bass
Falling Into Grace bass
Out In L.a. bass
My Friends bass
Dani Califoina bass
Woodstock Intro Bass Solo bass


Guitar Tabs









All tabs are property and copyright of their owners. All tabs provided for educational purposes only. Privacy Policy, DMCA