Red Hot Chili Peppers

Road Trippin' (the True Way) Bass Tabs



More from Red Hot Chili Peppers

Red Hot Chili Peppers Tabs
Red Hot Chili Peppers Chords
Red Hot Chili Peppers Bass
Red Hot Chili Peppers Lyrics




Alright, I know for a fact that the Intro/ Verse Part Right, And
Iím Almost positive that the bridge part are correct, but if
not, it still works with the song, trust me.
This song also sounds really good on a stand up bass, so if you
can, try it with a stand up bass.


Intro/ Verse
G-----------------------------------------------------
D-2-2-22-4h5-4-2---------4h5-4-2-2-224h5--------------
A---------------3-3-33-2-----------------3-3-33-2-----
E-------------------------------------------------3-2-

Bridge
G-----------------------------------------
D-----------------------------------------
A-0--0--0-0-2--2--2-2-3--3--3-3-5--5--5-5-
E-----------------------------------------

Cello Part
G---------
D---------
A-7-----5-
E---5-8---



Get this song at amazon.com      Ebay     Ringtones Ringtones  


Learn to play: Songwriting, Piano, Harmonica, Guitar
More Red Hot Chili Peppers lyrics available at Muzikum

Related Red Hot Chili Peppers Bass Tabs

Hyde Park: Bass Solo #3 bass
Slane Castle Jam 2 bass
Organic Anti-beat Box Band bass
Behind The Sun bass
Warlock bass
Easily bass
Instrumental No 1 bass
Instrumental #1 bass
Fire bass
Me and my friends intro bass
All Around The World bass
Make You Feel Better bass
Song: Savior bass
Other side bass
Subterranean Homesick Blues bass
Ethiopia bass
Cabron bass
Skinny Sweaty Man bass
Carbon bass
Under The Bridge (live) bass


Guitar Tabs









All tabs are property and copyright of their owners. All tabs provided for educational purposes only. Privacy Policy, DMCA