Red Hot Chili Peppers

Right On Time Bass Tabs



More from Red Hot Chili Peppers

Red Hot Chili Peppers Tabs
Red Hot Chili Peppers Chords
Red Hot Chili Peppers Bass
Red Hot Chili Peppers Lyrics




|-------------------|-------------------|-------------------|
|-------------------|-------------------|-------------------|
|7-9-7--------------|7-9-7--------------|7-9-7--------------|
|0---0-9-x-99-x-9-x-|0---0-9-x-99-x-9-x-|0---0-9-x-99-x-9-x-|

|----------------------------------|
|------/11-11-11-11-11-11-11-11-11-|
|7-9-7/----------------------------|
|0---0-----------------------------|

|-------------------|-------------------|-------------------|
|-------------------|-------------------|-------------------|
|7-9-7--------------|7-9-7--------------|7-9-7--------------|
|0---0-9-x-99-x-9-x-|0---0-9-x-99-x-9-x-|0---0-9-x-99-x-9-x-|

|------------------------------|
|------/11-x-11-11-x-11-11\\9--|
|7-9-7/------------------------|
|0---0-------------------------|

|-------------------|-------------------|
|-------------------|-------------------|
|7-9-7--------------|7-9-7--------------|
|0---0-9-x-99-x-9-x-|0---0-9-x-99-x-9-x-|

|-------------------------9-9-----9-9-|--------------------------11-11-----11-11-|
|-----11-11-----11-11-----------------|-----11-11-----11-11----------------------|
|----------------------7-7----7-7-----|----------------------9-9-------9-9-------|
|-9-9-------9-9-----------------------|-9-9-------9-9----------------------------|

|--------------------------9-9----9-9-|--------------------------------|
|-----11-11-----11-11-----------------|-----9-9-----9-9----------------|
|----------------------7-7----7-7-----|------------------9-9-9-9-9-9-9-|
|-9-9-------9-9-----------------------|-7-7-----7-7--------------------|

|-------------------------------14-14-------14-14-|
|-------16-16-------16-16-------------------------|
|--------------------------12-12------12-12-------|
|-14-14-------14-14-------------------------------|

|-------------------------------16-16-------16-16-|
|-------14-14-------14-14-------------------------|
|--------------------------14-14-------14-14------|
|-12-12-------12-12-------------------------------|

|-------------------------------14-14-------14-14-|
|-------16-16-------16-16-------------------------|
|--------------------------12-12------12-12-------|
|-14-14-------14-14-------------------------------|

|-----------------------------------------------|
|-------14-14-------14-14-----------------------|
|--------------------------14-14-14-14-14-14-14-|
|-12-12-------12-12-----------------------------|

|-------------------------9-9-----9-9-|----------------------11-----11-|
|-----11-11-----11-11-----------------|-----9-9-----9-9----------------|
|----------------------7-7----7-7-----|------------------9-9----9-9----|
|-9-9-------9-9-----------------------|-7-7-----7-7--------------------|

|-------------------------------|----------|
|-----9-9-----9-9---------------|----------|
|-----------------9-9-9-9-9-9-9-|7-9-7-----|
|-7-7-----7-7-------------------|0---0-9\\-|



Get this song at amazon.com      Ebay     Ringtones Ringtones  


Learn to play: Songwriting, Piano, Harmonica, Guitar
Also available at Muzikum: Red Hot Chili Peppers - Right On Time lyrics

Related Red Hot Chili Peppers Bass Tabs

By The Way (correct) bass
Strom In A Teacup bass
Under The Bridge bass
Can't Stop Bass Tab bass
Spell Correctly bass
Body Of Water bass
True Men Dont Kill Coyotes (full) bass
After Hours bass
Show Me Your Soul bass
Quick Jam bass
Overfunk (bside) bass
123456 bass
Bullet Proof bass
Funny Face bass
Dani Calofnia bass
Storm In A Teacup bass
Road Trippin bass
Fleas Warm Up bass
Bicycle Song bass
Lovin And Touchin bass


Guitar Tabs









All tabs are property and copyright of their owners. All tabs provided for educational purposes only. Privacy Policy, DMCA

Online converter - videoconverter.com