Red Hot Chili Peppers

Readymade Tabs



More from Red Hot Chili Peppers

Red Hot Chili Peppers Tabs
Red Hot Chili Peppers Chords
Red Hot Chili Peppers Bass
Red Hot Chili Peppers Lyrics




Tuning: Standard

Repeat this 'til your hands get sore and end on slide fill

e|---------------------------------------------------------------|-----------|
B|o--------------------------------------------------------------|-----------|
G|---------------------------------------------------------------|-----------|
D|---------5---------------5------------5--------------------5-7-|\----------|
A|o--5-77-5-7-5-7---5-77-5-7-5-7---5-77--7-5-7---------5-6-7-----|-----------|
E|----------------------------------------------5-6-7------------|-----------|

Repeat these two and end on fill

e|--2-------------------------------|
B|--3----------------2--------------|
G|--2----------------2--------------|
D|-------------------2--------------|
A|----------------------------------|
E|----------------------------------|

e|--------------------------------------------------------------|------------|
B|--------------------------------------------------------------|------------|
G|--------------------------------------------------------------|-----7------|
D|--------------------5~----------------------5~----------------|--7/9-9\7-5-|
A|------5-7--7---5-7-----5-7-------7--7---5-7----5-7------------|------------|
E|--0-7--------0--------0----6-5-3------0-------0----6-5-3------|------------|

Repeat this and end on fill

e|---------------------------------------------------------------|-----------|
B|o--------------------------------------------------------------|-----------|
G|---------------------------------------------------------------|-----------|
D|---------5---------------5------------5--------------------5-7-|\----------|
A|o--5-77-5-7-5-7---5-77-5-7-5-7---5-77--7-5-7---------5-6-7-----|-----------|
E|----------------------------------------------5-6-7------------|-----------|

Repeat this as an alternate if you like and end on fill

e|--------------------------------|------------------------------------------|
B|--------------------------------|------------------------------------------|
G|--------------------------------|------------------------------------------|
D|---------------17h19p17---------|--------------------17-19-----------------|
A|---17-19-19-17---------17-19----|-----------17-18-19-----------------------|
E|--------------------------------|---17-18-19-------------------------------|


Kickass solo- Anyone?


e|---------------------------------------------------------------------------|
B|---------------------------------------------------------------------------|
G|-----7----6----4----xxxx------------------xxx------------------------------|
D|-----7----6----4----xxxx---7----6----4----xxx------------------------------|
A|-----5----4----2----xxxx---7----6----4----xxx------------------------------|
E|--------------------xxxx---5----4----2----xxx------------------------------|

e|-----------------------------------------------|
B|-----------------------------------------------|
G|-----------------------------------------------|
D|--------------------5~-------------------------|
A|------5-7--7---5-7-----5-7-------7--7---5-7-7--|
E|--0-7--------0--------0----6-5-3------0--------|

Well, I hope that you all liked it. I'm quite proud as I have only
been playing
for a little over 2 years and this is my first tab! Send me feedback
or comments.


| / slide up
| \ slide down
| h hammer-on
| p pull-off
| ~ vibrato
| + harmonic
| x Mute note



Get this song at amazon.com      Ebay     Ringtones Ringtones  


Learn to play: Songwriting, Piano, Harmonica, Guitar
More Red Hot Chili Peppers lyrics available at Muzikum

Related Red Hot Chili Peppers Tabs

Breaking The Girl tabs
Storm In A Teacup tabs
Cabron Tabs tabs
Fire tabs
Blackeye Blonde tabs
Tell Me Baby Perfect tabs
Joe Bass tabs
The Velvet Glove tabs
Cabron Bass tabs
Pretty Lil Ditty tabs
Intro To Hyde Park (live) tabs
Melloship tabs
Minor Thing (4) tabs
Shallow Be Thy Game tabs
Rivers Of Avalon tabs
True Men Dont Kill Coyotes tabs
Storm In A Teacup Bass tabs
Subway To Venus tabs
Slow Cheetah Bass tabs
Tiny Dancer Live Cover tabs


Guitar Tabs









All tabs are property and copyright of their owners. All tabs provided for educational purposes only. Privacy Policy, DMCA