Red Hot Chili Peppers

Ready Me Bass Tabs



More from Red Hot Chili Peppers

Red Hot Chili Peppers Tabs
Red Hot Chili Peppers Chords
Red Hot Chili Peppers Bass
Red Hot Chili Peppers Lyrics




You have to listen to it to get the rithm. Once you got it its an
incredible song...
enjoy it!


Intro
G----------------------------------------------------------------------|
D----------5----------------5----------------5----------------------5--| x4
A--5-7-7-5---7-5-7--5-7-7-5---7-5-7--5-7-7-5---7-5-7--------3-3-5-7----|
E----------------------------------------------------3-5-5-------------|


Verse
G----------------------------------------------------------------------|
D----------5----------------5----------------5----------------------5--| x6
A--5-7-7-5---7-5-7--5-7-7-5---7-5-7--5-7-7-5---7-5-7--------3-3-5-7----|
E----------------------------------------------------3-5-5-------------|


Chorus
G----------------------------------------------------|
D----------------------------------------------------|
A----------------5-7-5--------------------------5-7--|
E-3--3-3--3-3--3-------7-5-3-5--5--5-5--5-5--55------|

G-----------------------------------------------------|
D-----------5---------------------------5-------------|
A-7-7---5-7------5-7----------7-7---5-7-----5-7--5----|
E-----7--------7-------7-5-3------7-------7--------7--|

G----------------------------------------------------|
D----------------------------------------------------|
A----------------5-7-5--------------------------5-7--|
E-3--3-3--3-3--3-------7-5-3-5--5--5-5--5-5--55------|


G----------------------------------------------------7----------|
D-----------5---------------------------5--------7h9---7-5------|
A-7-7---5-7------5-7----------7-7---5-7------5-7-----------5----|
E-----7--------7-------7-5-3------7--------7--------------------|


Verse

Chorus

Intro (Guitar solo)

After Guitar Solo (the prri-pi-pi thing)
G-----------------------------------------------------------|
D-----------------------------------------------------------|
A--5--4--2-------------------------5--4--2------------------|
E------------------5--4--2-------------------------5--4--2--|


Verse

Chorus



Get this song at amazon.com      Ebay     Ringtones Ringtones  


Learn to play: Songwriting, Piano, Harmonica, Guitar
More Red Hot Chili Peppers lyrics available at Muzikum

Related Red Hot Chili Peppers Bass Tabs

Turn It Again bass
What It Is bass
What Is Soul bass
Californication (the Ultimate Tab) bass
Shes Only 18 bass
Wet Sand bass
Roller Coaster bass
Californication (100% Correct!) bass
One Big Mob bass
Black Cross bass
Fire bass
Ill Be Your Domino bass
Soul To Squeeze bass
Slane Castle Jam bass
My Friends bass
Mommy Where's Daddy bass
Coffee Shop bass
Crosstown Traffic bass
Don t forget me bass
Blood Sugar Sex Magik (whole Album) bass


Guitar Tabs









All tabs are property and copyright of their owners. All tabs provided for educational purposes only. Privacy Policy, DMCA