Red Hot Chili Peppers

Ready Made Bass Tabs



More from Red Hot Chili Peppers

Red Hot Chili Peppers Tabs
Red Hot Chili Peppers Chords
Red Hot Chili Peppers Bass
Red Hot Chili Peppers Lyrics



Song: Readymade

Artist: Red Hot Chili Peppers

Album: Stadium Arcadium



Tabbed By: Marcos Prieto (webmaster at tabs-database.com.com)



Notation legend:



x -> mute.

\ -> slide up. \ It can be after or before the note, like 1h3,

/ -> slide down. | but if there's no enought space it can be

h -> hammer on. | over or down, like G|-13-...

p -> pull off. / D|--h-...

~ -> let ring.

r -> rest.

S -> slap.

P -> pop.

+ + -> the rhythm of the song, generally 4x4. If there are 2 digits notes

or there's no enough space, I lengthen it,

from (+ + ...) to (+ + ...)

|------| -> repeat this a number of times, for example |3-3-3-3| x4

repeats 3-3-3-3 four times.





Intro/Verse:

___V. End 1____

Em \

+ + + + + + + + + + + + + + + +

G||----------------|----------------|----------------|----------------||

D|--------5-------|--------5-------|--------5-------|--------------5-|

A|5-7-7-5---7-5-7-|5-7-7-5---7-5-7-|5-7-7-5---7-5-7-|--------5-6-7---|

E||----------------|----------------|----------------|4-5-6-7---------|| x10



____V. End 2___ ____V. End 3___ ____V. End 4___ ____V. End 5___

\ \ \ \

+ + + + + + + + + + + + + + + +

G|----------------| |----------------| |----------------| |----------------|

D|----------------| |----------------| |--------------5-| |----------------|

A|--------5-6-7\--| |--------5-6-7---| |--------5-6-7---| |--------5-6-7---|

E|4-5-6-7---------| |4-5-6-7-------0-| |4-5-6-7---------| |4-5-6-7---------|



Replace V. End 1 with V. End 2 last time after the chorus.



Chorus:



G A

+ + + + + + + + + + + + + + + +

G|----------------|----------------|----------------|----------------|

D|----------------|----------------|----------------|----------------|

A|----------------|------------5-7-|----------------|------------5-7-|

E|3-------3---3-3-|--3-3-----57----|5-------5---5-5-|--5-5-----7-----|

/



Em

+ + + + + + + + + + + + + + + +

G|----------------|----------------|----------------|----------------|

D|--------------5-|----------------|--------------5-|----------------|

A|7---7---5-7-----|----5-7---------|7---7---5-7-----|----5-7---------|

E|------7---------|--7-------7-5-3-|------7---------|--7-------7-5-3-|



G A

+ + + + + + + + + + + + + + + +

G|----------------|----------------|----------------|----------------|

D|----------------|----------------|----------------|----------------|

A|----------------|--------5-7-5---|----------------|------------5-7-|

E|3-------3---3-3-|--3-57--------3-|5-------5----5-5|--5-5-----7-----|

/



Em

+ + + + + + + + + + + + + + + +

G|----------------|----------------|----------------|----------7-----|

D|--------------5-|----------------|--------------5-|--------79--97--|

A|7---7---5-7-----|----5-7---------|7---7---5-7-----|----5-7--/----10|

E|------7---------|--7-------7-5-3-|------7---------|--7-------------|



Verse 2 (Replace V. End 1 with V. End 3 last time after the chorus)



Chorus 2:



G A

+ + + + + + + + + + + + + + + +

G|----------------|----------------|----------------|----------------|

D|----------------|----------------|----------------|----------------|

A|----------------|----------------|----------------|------------5-7-|

E|3-------3---3-3-|--3-3---3-3-3---|5-------5----5-5|--5-5-----7-----|



Em

+ + + + + + + + + + + + + + + +

G|----------------|----------------|----------------|----------------|

D|--------------5-|----------------|--------------5-|----------------|

A|7---7---5-7-----|----5-7---------|7---7---5-7-----|----5-7---------|

E|------7---------|--7-------7-5-3-|------7---------|--7-------7-5-3-|



G A

+ + + + + + + + + + + + + + + +

G|----------------|----------------|----------------|----------------|

D|----------------|------5-7-5-----|----------------|----------------|

A|----------------|--5-7-------7-5-|----------------|------------5-7-|

E|3-------3---3-5/|7---------------|5-------5----5-5|--5-5-----7-----|



Em

+ + + + + + + + + + + + + + + +

G|----------------|----------------|----------------|----------------|

D|--------------5-|----------------|----------------|----------------|

A|7---7---5-7-----|----5-7---------|7---7---5-7---7\|----------------|

E|------7---------|--7-------7-5-3-|------7---------|----------------|



Verse 3 (Replace V. End 1 with V. End 4 last time after the chorus)



Bridge:



+ + + + + + + +

G|----------------| ||----------------||

D|----------------| |----------------|

A|5-----x4-----2--| |------REST------|

E|----------------| ||----------------|| x3



+ + + + + + + +

G|----------------| ||----------------||

D|----------------| |----------------|

A|----------------| |------REST------|

E|5-----4------2--| ||----------------|| x3



+ + + + + + + +

G|----------------| ||----------------||

D|----------------| |----------------|

A|5-----4------2--| |------REST------|

E|----------------| ||----------------|| x3



+ + + + + + + +

G|----------------| ||----------------||

D|----------------| |----------------|

A|----------------| |------REST------|

E|5-----4------2--| ||----------------|| x3



Verse 4 (Replace V. End 1 with V. End 5 last time after the chorus)



Chorus 3:



G A

+ + + + + + + + + + + + + + + +

G|----------------|----------------|----------------|----------------|

D|----------------|--------------5-|----------------|----------------|

A|----------------|--------/-5-7---|----------------|------------5-7-|

E|3-------3---3-3-|--3-3--57-------|5-------5----5-5|--5-5-----7-----|



Em

+ + + + + + + + + + + + + + + +

G|----------------|----------------|----------------|----------------|

D|--------------5-|----------------|--------------5-|----------------|

A|7---7---5-7-----|----5-7---------|7---7---5-7-----|----5-7---------|

E|------7---------|--7-------7-5-3-|------7---------|--7-------7-5-3-|



G A

+ + + + + + + + + + + + + + + +

G|----------------|----------------|----------------|----------------|

D|----------------|--------5-------|----------------|----------------|

A|----------------|--/-5-7-----7-5-|----------------|------------5-7-|

E|3-------3---3-3-|-57-------------|5-------5----5-5|--5-5-----7-----|



Em

+ + + + + + + + + + + + + + + +

G|----------------|----------------|----------------|----------------|

D|--------------5-|----------------|----------------|----------------|

A|7---7---5-7-----|----5-7---------|7---7---5-7---7\|----------------|

E|------7---------|--7-------7-5-3-|------7---------|----------------|





__ _ __ __ _____ _____ _____

/ | / | / | / `\ / ___/ / __ / ( __/

/ |/ | / /|| / /) / // / / // \ \

/ /| /|| / /^|| / /|| //___ / / // ___) )

/ / | / || / / || / / || / / / ^^/ / /

^^^^^^^^^^^^^^^^^^^^^^^^^^^^^^^^^^^^^^^^^^^^^^^^^Added by tabs-database.com and our distinguished partners
Get this song at amazon.com      Ebay     Ringtones Ringtones  


Learn to play: Songwriting, Piano, Harmonica, Guitar
More Red Hot Chili Peppers lyrics available at Muzikum

Related Red Hot Chili Peppers Tabs

Rolling Sly Stone Live tabs
Mini Epic tabs
Tear (2) tabs
Wannabe tabs
If You Want Me To Stay tabs
Annie Wants A Baby tabs
Subterranean Homesick Blues tabs
I Could Have Lied tabs
Nevermind tabs
This Velvet Glove tabs
Special Secret Song tabs
Blackeye Blonde tabs
Sir Psycho Sexy tabs
Fight Like A Brave (3) tabs
Minor Thing (4) tabs
Especially In Michigan Bass tabs
Million Miles Of Water Bass tabs
Millionaires Against Hunger tabs
Aeroplane tabs
Higher Ground tabs


Guitar Tabs









All tabs are property and copyright of their owners. All tabs provided for educational purposes only. Privacy Policy, DMCA