Red Hot Chili Peppers

Pretty Little Ditty Bass Tabs



More from Red Hot Chili Peppers

Red Hot Chili Peppers Tabs
Red Hot Chili Peppers Chords
Red Hot Chili Peppers Bass
Red Hot Chili Peppers Lyrics



Tabbed By Cam Fraser - yo

Red Hot Chili Peppers

Flea

"Pretty Little Ditty"



x = Muted Note

h = Hammer On

p = Pull Off



x in parts section means times





Part A

G|--------------------------------|

D|----8-8-----8-8-----8-8----8-8--|

A|---8-8-8---8-8-8---8-8-8--8-8-8-|

E|-6-------6-------6-------6------|



Part B

G|-------10h12----------10h12-12-10--------10h12--------10h12-10-10-|

D|----x12------------12-----------------12-----------12-------------|

A|------------------------------------------------------------------|

E|-6h8------------6h8---------------6h8----------6h8----------------|



Part B #2

G|---------10h12----------10h12-12-------------------10h12-10h12p10-10-|

D|-----x12-----------12------------12-12/(10)-----12-------------------|

A|---------------------------------------------------------------------|

E|-6h8-----------6h8--------------------------6h8----------------------|





Part B #2 Cont.

G|----------10h12-12-10|

D|----10h12------------|

A|---------------------|

E|-6h8-----------------|



Part B #3

G|------10h12-------10h12-12-12--------10h12p10h12p10h12p10------10h12-12-10-|

D|----12-----x----12----------------12-------------------------12------------|

A|---------------------------------------------------------------------------|

E|-6h8---------6h8--------------6h8-------------------------6h8--------------|



Part B #4

G|-------10h12------10h12-12-10------10h12-------10h12-12-10-|

D|-----12---------12---------------12---------12-------------|

A|-----------------------------------------------------------|

E|-6h8---------6h8--------------6h8--------6h8---------------|



Part C

G|-------------------------|

D|--10-9-7-7--10-10/12-12--|

A|-0--0-0-0--0--0--0--0----|

E|-------------------------|



Part D

G|-------------------------------------------------------------------|

D|--12-14-15-14-12--14-15-17-15-14--15-17-19-17-15--15-17-19-17-15---|

A|-0--0--0--0--0---0--0--0--0--0---0--0--0--0--0---0--0--0--0--0-----|

E|-------------------------------------------------------------------|



Part E

G|-------------|

D|-------------|

A|-0[hold it]--

E|-------------



Parts



Ax4

Bx1

Ax4

B2x1(with cont.)

Cx4

Dx3

B3x1

Ax4

B4x1

Cx4

Dx4

Ex1Added by tabs-database.com and our distinguished partners
Get this song at amazon.com      Ebay     Ringtones Ringtones  


Learn to play: Songwriting, Piano, Harmonica, Guitar
More Red Hot Chili Peppers lyrics available at Muzikum

Related Red Hot Chili Peppers Tabs

Ready Made tabs
On Mercury tabs
Lets Make Evil tabs
Million Miles Of Water tabs
Dani California Solo tabs
Pretty Lil Ditty tabs
Subway To Venus Solo tabs
Dany California tabs
True Men Dont Kill Coyotes Bass tabs
By The Way Bass tabs
Melloship tabs
Melancoly Mechanics tabs
Dont Forget Me tabs
Charlie tabs
Leverage Of Space Live Bass tabs
Midnight Bass tabs
Turn It Again tabs
Road Trippin tabs
Dance, Dance, Dance tabs
Get On Top tabs


Guitar Tabs









All tabs are property and copyright of their owners. All tabs provided for educational purposes only. Privacy Policy, DMCA