Red Hot Chili Peppers

Porcelain Bass Tabs



More from Red Hot Chili Peppers

Red Hot Chili Peppers Tabs
Red Hot Chili Peppers Chords
Red Hot Chili Peppers Bass
Red Hot Chili Peppers Lyrics




PORCELAIN

Intro
Slowly MM=47

(Drums 4 Bars)

VERSE

Porc'lain. Are you wasting away in your skin?
Are you missing the love of your kin?
Drifting and floating and fading away.

G|-------------6-----------|-------------------------|
D|-----------------7-------|-------------------------|
A|-5-------------------5---|-------------------------|
E|-------------------------|-5-----------------5-----|
1 + 2 + 3 + 4 + 5 + 6 + 1 + 2 + 3 + 4 + 5 + 6 +

G|-------------6-----------|-------------------------|
D|-----------------7-------|-------------------------|
A|-5-------------------5\--|-------------------------|
E|-------------------------|-2-----------------------|
1 + 2 + 3 + 4 + 5 + 6 + 1 + 2 + 3 + 4 + 5 + 6 +

G|-------------6-----------|-------------------------|
D|-----------------7-------|-------------------------|
A|-5-------------------5---|-------------------------|
E|-------------------------|-5-------------------5---|
1 + 2 + 3 + 4 + 5 + 6 + 1 + 2 + 3 + 4 + 5 + 6 +

G|-------------6-----------|-------------------------|
D|-----------------7-------|-------------------------|
A|-5-------------------5\--|-------------------------|
E|-------------------------|-2-----------------------|
1 + 2 + 3 + 4 + 5 + 6 + 1 + 2 + 3 + 4 + 5 + 6 +

Porc'lain. Do you smell like a girl when you smile.
Can you bear not to share with your child?
Drifting and floating and fading away.

G|-------------6-----------|-------------------------|
D|-----------------7-------|-------------------------|
A|-5-------------------5---|-------------------------|
E|-------------------------|-5-----------------5-----|
1 + 2 + 3 + 4 + 5 + 6 + 1 + 2 + 3 + 4 + 5 + 6 +

G|-------------6-----------|-------------------------|
D|-----------------7-------|-------------------------|
A|-5-------------------5\--|-------------------------|
E|-------------------------|-2-----------------------|
1 + 2 + 3 + 4 + 5 + 6 + 1 + 2 + 3 + 4 + 5 + 6 +

G|-------------6-----------|-------------------------|
D|-----------------7-------|-------------------------|
A|-5-------------------5---|---------------------7---|
E|-------------------------|-5-----------------------|
1 + 2 + 3 + 4 + 5 + 6 + 1 + 2 + 3 + 4 + 5 + 6 +

G|-------------6-----------|-------------------------|
D|-----------------7-------|-------------------------|
A|-5-------------------5\--|-------------------------|
E|-------------------------|-2-----------------------|
1 + 2 + 3 + 4 + 5 + 6 + 1 + 2 + 3 + 4 + 5 + 6 +

CHORUS

Little Lune.
All Day.
Little Lune.

G|-------------------------|-------------------------|
D|-------------------------|-------------------------|
A|-2-----------------------|-------------------------|
E|-------------2-----------|-5-----------------------|
1 + 2 + 3 + 4 + 5 + 6 + 1 + 2 + 3 + 4 + 5 + 6 +

G|-------------------------|-------------------------|
D|-------------------------|-------------------------|
A|-2-----------------------|-------------------------|
E|-------------------------|-5-----------------------|
1 + 2 + 3 + 4 + 5 + 6 + 1 + 2 + 3 + 4 + 5 + 6 +

G|-------------------------|-------------------------|
D|-------------------------|-------------------------|
A|-2-----------------------|-------------------------|
E|-------------2-----------|-5-----------------------|
1 + 2 + 3 + 4 + 5 + 6 + 1 + 2 + 3 + 4 + 5 + 6 +

G|-------------------------|-------------------------|
D|-------------------------|-------------------------|
A|-------------------------|-------------7-----------|
E|-0-----------4-----------|-7-----------------------|
1 + 2 + 3 + 4 + 5 + 6 + 1 + 2 + 3 + 4 + 5 + 6 +

VERSE 2

Porc'lain. Do you carry the moon in your womb?
Someone said that you're fading too soon.
Drifting and floating and fading away.

G|-------------6-----------|-------------------------|
D|-----------------7-------|-------------------------|
A|-5-------------------5---|-------------------------|
E|-------------------------|-5-----------------------|
1 + 2 + 3 + 4 + 5 + 6 + 1 + 2 + 3 + 4 + 5 + 6 +

G|-------------6-----------|-------------------------|
D|-----------------7-------|-------------------------|
A|-5-------------------5\--|-------------------------|
E|-------------------------|-2-----------------------|
1 + 2 + 3 + 4 + 5 + 6 + 1 + 2 + 3 + 4 + 5 + 6 +

G|-------------6-----------|-------------------------|
D|-----------------7-------|-------------------------|
A|-5-------------------5---|-------------------------|
E|-------------------------|-5-----------------------|
1 + 2 + 3 + 4 + 5 + 6 + 1 + 2 + 3 + 4 + 5 + 6 +

G|-------------6-----------|-------------------------|
D|-----------------7-------|-------------------------|
A|-5-------------------5\--|-------------------------|
E|-------------------------|-2-----------------------|
1 + 2 + 3 + 4 + 5 + 6 + 1 + 2 + 3 + 4 + 5 + 6 +

Porc'lain. Are you wasting away in your skin?
Are you missing the love of your kin?
Nodding and melting and fading away.

G|-------------6-----------|-------------------------|
D|-----------------7-------|-------------------------|
A|-5-------------------5---|-----------------5---7---|
E|-------------------------|-5-----------5-7---------|
1 + 2 + 3 + 4 + 5 + 6 + 1 + 2 + 3 + 4 + 5 + 6 +

G|-------------6-----------|-------------------------|
D|-----------------7-------|-------------------------|
A|-5-------------------5\--|-------------------------|
E|-------------------------|-2-----------------------|
1 + 2 + 3 + 4 + 5 + 6 + 1 + 2 + 3 + 4 + 5 + 6 +

G|-------------6-----------|-------------------------|
D|-----------------7-------|-------------------------|
A|-5-------------------5---|-------------------------|
E|-------------------------|-5-----------------------|
1 + 2 + 3 + 4 + 5 + 6 + 1 + 2 + 3 + 4 + 5 + 6 +

G|-------------6-----------|-------------------------|
D|-----------------7-------|-------------------------|
A|-5-------------------5\--|-------------------------|
E|-------------------------|-2-----------------------|
1 + 2 + 3 + 4 + 5 + 6 + 1 + 2 + 3 + 4 + 5 + 6 +

CHORUS

Little Lune.
All Day.
Little Lune.

G|-------------------------|-------------------------|
D|-------------------------|-------------------------|
A|-2-----------------------|-------------------------|
E|-------------2-----------|-5-----------------------|
1 + 2 + 3 + 4 + 5 + 6 + 1 + 2 + 3 + 4 + 5 + 6 +

G|-------------------------|-------------------------|
D|-------------------------|-------------------------|
A|-2-----------------------|-------------------------|
E|-------------------------|-5-----------------------|
1 + 2 + 3 + 4 + 5 + 6 + 1 + 2 + 3 + 4 + 5 + 6 +

G|-------------------------|-------------------------|
D|-------------------------|-------------------------|
A|-2-----------------------|-------------------------|
E|-------------2-----------|-5-----------------------|
1 + 2 + 3 + 4 + 5 + 6 + 1 + 2 + 3 + 4 + 5 + 6 +

G|-------------------------|-------------------------|
D|-------------------------|-------------------------|
A|-------------------------|-------------7-----------|
E|-0-----------4-----------|-7-----------------------|
1 + 2 + 3 + 4 + 5 + 6 + 1 + 2 + 3 + 4 + 5 + 6 +

Little Lune.
All Day.
Little Lune.

G|-------------------------|-------------------------|
D|-------------------------|-------------------------|
A|-2-----------------------|-------------------------|
E|-------------2-----------|-5-----------------------|
1 + 2 + 3 + 4 + 5 + 6 + 1 + 2 + 3 + 4 + 5 + 6 +

G|-------------------------|-------------------------|
D|-------------------------|-------------------------|
A|-2---------------2h4-2---|-------------------------|
E|-------------------------|-5-----------------------|
1 + 2 + 3 + 4 + 5 + 6 + 1 + 2 + 3 + 4 + 5 + 6 +

G|-------------------------|-------------------------|
D|-------------------------|-------------------------|
A|-2-----------------------|-------------------------|
E|-------------2-----------|-5-----------------------|
1 + 2 + 3 + 4 + 5 + 6 + 1 + 2 + 3 + 4 + 5 + 6 +

G|-------------------------|---------9/11\9----------|
D|-------------6-------9---|-9-----------------------|
A|-7-----------------------|-------------------------|
E|-------------------------|-------------------------|
1 + 2 + 3 + 4 + 5 + 6 + 1 + 2 + 3 + 4 + 5 + 6 +

G|-------------------------||
D|-0-----------------------||
A|-------------------------||
E|-------------------------||
1 + 2 + 3 + 4 + 5 + 6 +



Get this song at amazon.com      Ebay     Ringtones Ringtones  


Learn to play: Songwriting, Piano, Harmonica, Guitar
Also available at Muzikum: Red Hot Chili Peppers - Porcelain lyrics

Related Red Hot Chili Peppers Bass Tabs

Felas Cock bass
Can't Stop bass
Parrallel Universe bass
By The Way bass
Hey bass
Deep Kick bass
The Power Of Equality bass
Hyde Park: Bass Solo #1 bass
Special Secret Song Inside bass
Tell Me Baby bass
Desecration Smile Bass Tab bass
Backwoods3 bass
Otherside Perfect Bass Tab bass
Hump De Bump bass
Funny Face bass
Another Flea Warm Up bass
By The Way (tabbed From Notes) bass
The Adventures Of Raindance Maggie bass
The Song That Made Us What We Are Today bass
Suck My Kiss bass


Guitar Tabs









All tabs are property and copyright of their owners. All tabs provided for educational purposes only. Privacy Policy, DMCA