Red Hot Chili Peppers

Pea Tabs



More from Red Hot Chili Peppers

Red Hot Chili Peppers Tabs
Red Hot Chili Peppers Chords
Red Hot Chili Peppers Bass
Red Hot Chili Peppers Lyrics



Pea
Words and Music by Anthony Kiedis, Michael Balzary (Flea), Chad Smith, Dave Navarro
From One hot minute
each - is pretty much a 16th note exept in bars where there are slides and bends
etc. the rhythm is pretty simple anyway
r = 16th rest
> = a tie to next note
tabber: Max Callaghan (maxipower123)


----------------|----------------|----------------|----------------|
----------------|----------------|----------------|----------------|
----------------|----------------|----------------|----------------|
3---x-3-3---x-3-|----------------|----------------|----------------| x4
----------------|4---x-4-4---x-4-|3---x-3-3---x-3-|1---x-1-1---x-1-|
----------------|----------------|----------------|----------------|

----------------|----------------|----------------|----------------|
----------------|----------------|----------------|----------------|
----------------|3---rr3-3---x-3-|----------------|----------------|
3/5--x-5-5---x-5|----------------|3---x-3-3---x-3-|3-3-xx3-xx3-x-34|
----------------|----------------|----------------|-------------5--|
----------------|----------------|----------------|----------------|

----------------|----------------|----------------|----------------|
----------------|----------------|----------------|----------------|
----------------|3---rr3-3---x-3-|----------------|----------------|
5---x-5-5---x-5-|----------------|3---x-3-3---x-3-|3-3-x-3-rr3-rr3-|
----------------|----------------|----------------|----------------|
----------------|----------------|----------------|----------------|

----------------|----------------|----------------|----------------|
----------------|----------------|----------------|----------------|
----------------|----------------|----------------|----------------|
2---x-2-2---r-2-|--------0---3---|2---x-2-2---x-2-|0---x-0-3-3-3-2>|
----------------|3---x-3---------|----------------|----------------|
----------------|----------------|----------------|----------------|

----------------|----------------|----------------|----------------|
----------------|----------------|----------------|----------------|
----------------|----------------|----------------|----------------|
2-2-2--22-2---2-|0---x-0-3-3-3-2>|2-2-2-2-2-2-2-2-|0-0-0-0-3-3-3-2>|
----------------|----------------|----------------|----------------|
----------------|----------------|----------------|----------------|

----------------|----------------|
----------------|----------------|
----------------|----------------|
2-2-2-2-2-2-2-2-|0-0-0-0-3-3-3-2-|
----------------|----------------|
----------------|----------------|


Get this song at amazon.com      Ebay     Ringtones Ringtones  


Learn to play: Songwriting, Piano, Harmonica, Guitar
Also available at Muzikum: Red Hot Chili Peppers - Pea lyrics

Related Red Hot Chili Peppers Tabs

Stadium Arcadium tabs
Blackeye Blonde tabs
Bob Bass tabs
Hump The Bump tabs
Funny Face tabs
By The Way Album tabs
Cmon Girl tabs
Dani California Bass tabs
Torture Me Bass tabs
True Man Dont Kill Coyote tabs
Even You Brutus? tabs
Universally Speaking tabs
Million Miles Of Water Bass tabs
Intro tabs
Stadium Arcadium - Jupiter tabs
Midnight tabs
Savior tabs
Dont Forget Me Live tabs
Minor Thing tabs
Ill Be Your Domino tabs


Guitar Tabs









All tabs are property and copyright of their owners. All tabs provided for educational purposes only. Privacy Policy, DMCA