Red Hot Chili Peppers

Parallel Universe (%100 Perfect) Bass Tabs



More from Red Hot Chili Peppers

Red Hot Chili Peppers Tabs
Red Hot Chili Peppers Chords
Red Hot Chili Peppers Bass
Red Hot Chili Peppers Lyrics




OK well this is my second tab i have tabbed so i hope you like and i am %100 that
this is perfect. so please rate it. thank you
have fun.

intro
-------------------------------------------------
-10-10-10-10-10-10-10-10-10-10-10-10-10-10-10-10-
-------------------------------------------------
-------------------------------------------------

-------------------------------------------------
-10-10-10-10-10-10-10-10-10-10-10-10-10-10-10-10-
-------------------------------------------------
-------------------------------------------------

-------------------------------------------------
-8-8-8-8-8-8-8-8-8-8-8-8-8-8-8-8-----------------
-------------------------------------------------
-------------------------------------------------


-------------------------------------------------
-8-8-8-8-8-8-8-8-8-8-8-8-8-8-8-8-----------------
-------------------------------------------------
-------------------------------------------------

-------------------------------------------------
-12-12-12-12-12-12-12-12-12-12-12-12-12-12-12-12-
-------------------------------------------------
-------------------------------------------------

-------------------------------------------------
-13-13-13-13-13-13-13-13-13-13-13-13-13-13-13----
----------------------------------------------10-
-------------------------------------------------

-------------------------------------------------
-------------------------------------------------
---10-10-10-10-10-10-10-10-10-10-10-10-10-10-10--
-------------------------------------------------


-12-12-12-12-10-10-10-10-------------------------
-------------------------13-13-13-13-12-12-12-12-
-------------------------------------------------
-------------------------------------------------



Verse-Play the intro x2

chorus
-------------------------------------------------
-10-10-10-10-10-10-10-10-10-10-10-10-10-10-------
-------------------------------------------10-10-
-------------------------------------------------

-------------------------------------------------
-------------------------13-13-13-13-13-13-13-13-
-11-11-11-11-11-11-11-11-------------------------
-------------------------------------------------

-------------------------------------------------
-------------------------------------------------
-10-10-10-10-10-10-10-10-10-10-10-10-10-10-10-10-
-------------------------------------------------

-------------------------------------------------
-------------------------------------------------
-10-10-10-10-10-10-10-10-10-10-10-10-10-10-10-10-
-------------------------------------------------

-------------------------------------------------
-10-10-10-10-10-10-10-10-10-10-10-10-------------
-------------------------------------10-10-10-10-
-------------------------------------------------

-------------------------------------------------
-------------------------13-13-13-13-13-13-13----
-11-11-11-11-11-11-11-11----------------------10-
-------------------------------------------------

-------------------------------------------------
-------------------------------------------------
-10-10-10-10-10-10-10-10-10-10-10-10-10-10-10-10-
-------------------------------------------------

-------------------------------------------------
-------------------------------------------------
-10-10-10-10-10-10-10-10-10-10-10-10-10-10-10----
----------------------------------------------10-

Verse-Play the intro x2

Chorus- Play x2

interlude (bass solo)
-------------------------------------------------
-10-10-10-10-------------------------------------
-------------10-10-10-10-11-11-11-11\8-8-8------- x7
-------------------------------------------------

-------------------------------------------------
-10-10-10-11-------------------------------------
-------------10-10-10-10-11-11-11-11\8-8-8-------

Verse-Play the intro x2


Chorus- Play x2

Verse-Play the intro x4

---------------------10^-------10^--
--10--10^----10^-----10^------10^--- (^= bend up)
------------------------------------
------------------------------------



Get this song at amazon.com      Ebay     Ringtones Ringtones  


Learn to play: Songwriting, Piano, Harmonica, Guitar
More Red Hot Chili Peppers lyrics available at Muzikum

Related Red Hot Chili Peppers Bass Tabs

Slowly Deeply bass
Can't Stop (easy To Slap) bass
Coffee Shop bass
Under The Bridge (live) bass
Roller coaster of love bass
She's Only 18 (correct) bass
Slow Cheetah bass
So Much I bass
Charlie bass
Mellowship Slinky bass
Can't Stop Good I Think bass
Religion bass
Hard To Concentrate bass
Transcending bass
You always sing the same bass
She's Only 18 bass
Slane Castle Jam #1 bass
Dany California bass
What Is Soul bass
Higher Ground (complete) bass


Guitar Tabs









All tabs are property and copyright of their owners. All tabs provided for educational purposes only. Privacy Policy, DMCA