Red Hot Chili Peppers

Overfunk (bside) Bass Tabs



More from Red Hot Chili Peppers

Red Hot Chili Peppers Tabs
Red Hot Chili Peppers Chords
Red Hot Chili Peppers Bass
Red Hot Chili Peppers Lyrics




VERSE:

G:|------9-9p7------6-6--|
D:|--------------------9-|
A:|--0h7--------0h7------|
E:|----------------------|

G:|------9-9p7------6-6-----|
D:|---------------------7h9-|
A:|--0h7--------0h7---------|
E:|-------------------------|

G:|------9-9p7------6-6--|
D:|--------------------9-|
A:|--0h7--------0h7------|
E:|----------------------|

G:|------9-9p7------9--6-----|
D:|----------------------7h9-|
A:|--0h7--------0h7----------|
E:|--------------------------|

5x

CHORUS:

G:|----------------------|
D:|----------------------|
A:|----------------------|
E:|-0--0-3-000--3--5--2--|

G:|------------------|
D:|------------------|
A:|------------------|
E:|-0--0-3-000--3--2-|

G:|----------------------|
D:|----------------------|
A:|----------------------|
E:|-0--0-3-000--3--5--2--|

G:|-----------------------|
D:|-----------------------|
A:|-----------------------|
E:|-0--0-3-000--7-5-55-75-|

2x

Verse 5x
Chorus 2x


BRIDGE:
G:|---------------------|
D:|-9~~~-7~~~-9~~~-7~~~-|
A:|---------------------|
E:|---------------------|

G:|---------------------|
D:|---------------------|
A:|---------------------|
E:|-7~~~-5~~~-7~~~-5~~~-|

G:|---------------------|
D:|-9~~~-7~~~-9~~~-7~~~-|
A:|---------------------|
E:|---------------------|

G:|---------------------|
D:|---------------------|
A:|---------------------|
E:|-7~~~-5~~~-7~~~-5~~~-|

Verse 2x



Get this song at amazon.com      Ebay     Ringtones Ringtones  


Learn to play: Songwriting, Piano, Harmonica, Guitar
More Red Hot Chili Peppers lyrics available at Muzikum

Related Red Hot Chili Peppers Bass Tabs

This Is The Place bass
Give It Away (fleas Way- I've Seen Him Do It This Way) bass
Out In L.a. bass
Other side bass
Search And Destroy bass
Backwoods3 bass
One Of Fleas Funky Solos bass
Dani California bass
Snow bass
Californication (the Ultimate Tab) bass
Time bass
Brandy bass
By The Way::::::101% Correct, No Questions Asked bass
Funky Monks (4 String Adaption) bass
Fight Like A Brave bass
C'mon Girl bass
C'mon Girl (perfect) bass
The Zephyr Song bass
Battleship bass
Give It Away bass


Guitar Tabs









All tabs are property and copyright of their owners. All tabs provided for educational purposes only. Privacy Policy, DMCA