Red Hot Chili Peppers

Out In L.a. Bass Tabs



More from Red Hot Chili Peppers

Red Hot Chili Peppers Tabs
Red Hot Chili Peppers Chords
Red Hot Chili Peppers Bass
Red Hot Chili Peppers Lyrics




Artist- Red Hot Chili Peppers
Album- Red Hot Chili Peppers
Song- Out in L.A.

Intro
G|-------------|-------------|--------------------|-------------||
D|-REST-2-BARS-|-------------|------------------5-|-------------||
A|-------------|-7--5------7-|--5-4-5-5---4-5-7---|-7--5------5-||
E|-------------|-------6-7---|--------------------|-------6-7---||

Verse
G|--------------|-------------|--------------------|-------------||
D|--------------|-------------|------------------5-|-------------||
A|-7-5--4--5----|-7--5------7-|--5-4-5-5---4-5-7---|-7--5------5-||
E|--------------|-------6-7---|--------------------|-------6-7---||

G|----------------|-------------|--------------------|-------------||
D|----------------|-------------|------------------5-|-------------||
A|-7-5--4--5--19\-|-7--5------7-|--5-4-5-5---4-5-7---|-7--5------5-||
E|----------------|-------6-7---|--------------------|-------6-7---||

G|--------------|-------------|--------------------|-------------||
D|--------------|-------------|------------------5-|-------------||
A|-7-5--4--5----|-7--5------7-|--5-4-5-5---4-5-7---|-7--5------5-||
E|--------------|-------6-7---|--------------------|-------6-7---||

Bass Solo
G|--------------|---------6h7---------------7h9-|---9-----7---7----------7---|---------------------------||
D|--------------|---------------------7h9-x-----|------------------7h8h9-----|---------------------------||
A|-7-5--4--5----|---5h7-x-----0-5h7-x-----------|-----x-x---x----5---------7-|-----------------------5h7-||
E|------------4-|-0-----------------------------|-0--------------------------|-0-4^-0-5^-0-6^-0-7^-0-----||

Verse 2
G|---7---10----12--------14^-|-------------|--------------------|-------------||
D|---------------------------|-------------|------------------5-|-------------||
A|-5---8----10----10-10------|-7--5------7-|--5-4-5-5---4-5-7---|-7--5------5-||
E|---------------------------|-------6-7---|--------------------|-------6-7---||

Drum Interlude Verse 3
G|----------------|-------------|-------------|--------------------||
D|----------------|-REST-4-BARS-|-------------|------------------5-||
A|-7-5--4--5--19\-|-------------|-7--5------7-|--5-4-5-5---4-5-7---||
E|----------------|-------------|-------6-7---|--------------------||

G|-------------|--------------|-------------|--------------------||
D|-------------|--------------|-------------|------------------5-||
A|-7--5------5-|-7-5--4--5----|-7--5------7-|--5-4-5-5---4-5-7---||
E|-------6-7---|--------------|-------6-7---|--------------------||

~~~ Bridge Verse 4
G|-------------|----------------|-------------|-------------||
D|-------------|----------------|-REST-4-BARS-|-------------||
A|-7--5------5-|-7-5--4--5------|-------------|-7--5------7-||
E|-------6-7---|------------3---|-------------|-------6-7---||

G|--------------------|-------------|----------------|-------------||
D|------------------5-|-------------|----------------|-------------||
A|--5-4-5-5---4-5-7---|-7--5------5-|-7-5--4--5--19\-|-7--5------7-||
E|--------------------|-------6-7---|----------------|-------6-7---||

~~~
G|--------------------|-------------|----------------|-------------||
D|------------------5-|-------------|----------------|-------------||
A|--5-4-5-5---4-5-7---|-7--5------5-|-7-5--4--5------|-7--5------7-||
E|--------------------|-------6-7---|------------3---|-------6-7---||

Guitar Solo
G|--------------------|-------------|-----------------14\-|-------------||
D|------------------5-|-------------|---------------------|-------------||
A|--5-4-5-5---4-5-7---|-7--5------5-|-7-5--4--5--7/12-----|-7--5------7-||
E|--------------------|-------6-7---|---------------------|-------6-7---||

Verse
G|----------------7-------|-------------|--------------|-------------||
D|-----------7/9----9-----|-------------|--------------|-------------||
A|--5-4-5-5------------10-|-7--5------5-|-7-5--4--5----|-7--5------7-||
E|------------------------|-------6-7---|--------------|-------6-7---||

G|--------------------|-------------|--------------||
D|------------------5-|-------------|--------------||
A|--5-4-5-5---4-5-7---|-7--5------5-|-7-5--4--5----||
E|--------------------|-------6-7---|--------------||



Get this song at amazon.com      Ebay     Ringtones Ringtones  


Learn to play: Songwriting, Piano, Harmonica, Guitar
Also available at Muzikum: Red Hot Chili Peppers - Out In La lyrics

Related Red Hot Chili Peppers Bass Tabs

Suck My Kiss! Awesome bass
Get Up And Jump bass
The Is The Place bass
Simple Nice bass
Mellowship In Slinky B Major bass
Make You Feel Better bass
Super Ultra Rare Flea Bass Solo bass
Universally Speaking bass
On Mercury bass
Look Around bass
Bass Solo bass
Dani Calofnia bass
Savior bass
Overfunk (bside) bass
Suck My Kiss (correct) bass
Other side bass
Deep Kick bass
No Chump Love Sucker bass
Fu bass
What Is Soul (from Off The Map) bass


Guitar Tabs









All tabs are property and copyright of their owners. All tabs provided for educational purposes only. Privacy Policy, DMCA