Red Hot Chili Peppers

Otherside ( Correct ) Bass Tabs



More from Red Hot Chili Peppers

Red Hot Chili Peppers Tabs
Red Hot Chili Peppers Chords
Red Hot Chili Peppers Bass
Red Hot Chili Peppers Lyrics




intro

G|------------------------------------------------
D|------------------------------------------------
A|------------------------3--3--3-3---------------
E|-5--5--5-3--1--1--1-1------------0--3--3--3----

chorus

G|------------------------------------------------
D|------------------------------------------------
A|------------------------3--3--3-3------3--2-----
E|-5--5--5-3--1--1--1-1------------0-3--------3--

G|------------------------------------------------
D|----------------------------------------5-------
A|------------------------3--3--3-3---------------
E|-5--5--5-3--1--1-1-1/3------------0-3-----3/4--

G|------------------------------------------------
D|------------------------------------------------
A|------------------------3--3--3-3---------------
E|-5--5--5-3--1--1--1-1------------0-3-3-3--3-3-3

Verse

G|------------------------------------------------
D|-7----7--7----7--7--7--/14---14--14---14--14---*
A|------------------------------------------------
E|------------------------------------------------

G|------------------------------------------------
D|-7----7--7----7--7--7--/14--h15-----------------*
A|------------------------------------------------
E|---------------------------------14h15----------

G|------------------------------------------------
D|-7----7--7----7--7--7--/14---14--14---14---14--*
A|------------------------------------------------
E|------------------------------------------------

G|------------------------------------------------
D|------------------------------------------------
A|--------------------------------------------0000
E|--3--------------------5------------------------

G|------------------------------------------------
D|-7----7--7----7--7--7--/14---14--14---14--14---*
A|------------------------------------------------
E|------------------------------------------------

G|------------------------------------------------
D|-7----7--7----7--7--7--/14----------------------*
A|------------------------------------------------
E|-------------------------------14-14------------

G|------------------------------------------------
D|-7----7--7----7--7--7--/14---14--14---14---14--*
A|------------------------------------------------
E|------------------------------------------------

G|------------------------------------------------
D|--------------------------5-----------5-5-------
A|------------------------------------------------
E|--3---5----3---5-------3----3---3-3-3-----3-3--3

G|------------------------------------------------
D|-----------7--7--7----7---7---7---7-------------
A|--------------------7---7---7---7---------------
E|--5---5-----------------------------------------

Chorus

G|-----------------------------------------------------------------
D|-----------------------------------------------------------------
A|----------------------------------3--3-3---3-3-------------------
E|-5---5---5--3---1--1-1---1-1-1/3--------------0-3--3--3---3-4--4

G|-----------------------------------------------------------------
D|-----------------------------------------------------------------
A|----------------------------------3--3-3--5-3-3-----3--2--2------
E|-5--5-5-5-5-3---1--1-1---1-1-1/3----------------3----------3-3-4

G|-----------------------------------------------------------------
D|-----------------------------------------------------------------
A|----------------------------------3---3-3---3-3------------------
E|-5--5-5--5-3-3-3-1--1-1---1-1-1/3---------------0--3--3--333--3-3

Repeat Verse

Chorus

G|-----------------------------------------------------------------
D|-----------------------------------------------------------------
A|----------------------------------3--3-3---3-3-------------3-2---
E|-5--5-5-5-5-3---1--1-1---1-1-1/3--------------0--3--3--3------3-

G|-----------------------------------------------------------------
D|-----------------------------------------------------------------
A|----------------------------------3--3-3---3-3--------3--3-2--2-5
E|-5--5-5-5-5-3---1--1-1---1-1-1----------------0--3--------------

G|-----------------------------------------------------------------
D|-----------------------------------------------------5------5----
A|----------------------------------3---3-3---3-3------------------
E|-5--5-5--5-3-3-3-1--1-1---1-1-1/3---------------0--3---3--3---3-3

Bridge
G|---------------------------------------------------------------------
D|----(2---0--2)-----(2---0--2)-------------------------------(5--4---0)
A|-----7---5--7-------7---5--7----(0--2--3---3---2--3---3)-(5)10--9----
E|-0--------------0-------------0--5--7--8---8---7--8---8---10-------10

G|-------------------------------------------------------------------------
D|----(2---0--2)-----(2---0--2)-----------------------------(5-4-2-4--5-2--)
A|-----7---5--7-------7---5--7-----(0--2--3---3---2--3---3)-10-9-7-9-10-7(5)
E|-0-0------------0-------------0-0-5--7--8---8---7--8---8---------------10

G|---------------------------------------------------------------------
D|----(2---0--2)-----(2---0--2)-------------------------------(5--4---0)
A|-----7---5--7-------7---5--7----(0--2--3---3---2--3---3)-(5)10--9----
E|-0-0---0--------0-------------0--5--7--8---8---7--8---8---10-------10

G|----------------------------------------------------------------------
D|----(2---0--2)---(2--2---0--2)--------------------------------(5--4--0)
A|-----7---5--7-----7--7---5--7----(0--2--3---3---2--3---3)--(5)10--9---
E|-0--------------0------0-------0--5--7--8---8---7--8---8---10-------10

Outro

G|-------------------------------------------------------------------
D|-------------------------------------------------------------------
A|-----------------------------------3-3-3-3-3-3-3-------------2-3-2-
E|-5--5-5---5-3--1-1-1-1---1-1-1-1----------------0--3--3-333------3

G|-------------------------------------------------------------------
D|-------------------------------------------------------------------
A|----------------------------------3---3-3-3-3-3--------------------
E|-5--5-5---5-3--1-1-1-1-1-1-1-1------------------0---3--3-3-3-3-3-3

G|-------------------------------------------------------------------
D|-----------------3--3-3---3-5-3------------------------------------
A|---------------------------------3-3-3---5-3--------3--3-2--2------
E|-5--5-5---5-5-5------------------------------0--3-------------3-3-3

G|-------------------------------------------------------------------
D|--------------------------------------------------------5-5-5------
A|-------------------------------------3---3-3---3-3-----------------
E|-5--5-5---5-3-3-3-1--1-1---1-1-1/3----------------0--3-------3-3-3

G|-------------------------------------------------------------------
D|-------------------------------------------------------------------
A|----------------------------------------3--3-3-3-3-3---------------
E|-5---5--5--5--5-3---1--1--1--1---1-1/3--------------0--3-3-3-3-0-3

G|-------------------------------------------5-5-5-5--5-5---------------------
D|-----------------------3--5-3-3-3-5-3-3-3----------------0-5-5--5-5---------
A|-----------------3--5------------------------------------------------0--3--0
E|-5---5--5--5--5-------------------------------------------------------------



Get this song at amazon.com      Ebay     Ringtones Ringtones  


Learn to play: Songwriting, Piano, Harmonica, Guitar
More Red Hot Chili Peppers lyrics available at Muzikum

Related Red Hot Chili Peppers Bass Tabs

The Brothers Cup bass
Hey Bass Tab bass
I Could Have Lied (live) bass
Fly bass
Blues For Meister bass
Bunker Hill bass
Pretty Little Ditty bass
Can't Stop Bass Tab bass
Catholic School Girls Rule bass
Phat Dance bass
Breaking The Girl (Version 2) bass
This Is The Place Intro bass
Deep Kick bass
C'mon Girl bass
Funky Crime bass
Wet Sand bass
The Power Of Equality bass
Warped bass
On Mercury bass
Tell Me Baby (10000% Correct) bass


Guitar Tabs









All tabs are property and copyright of their owners. All tabs provided for educational purposes only. Privacy Policy, DMCA