Red Hot Chili Peppers

Other Side (%500 Perfect) Bass Tabs



More from Red Hot Chili Peppers

Red Hot Chili Peppers Tabs
Red Hot Chili Peppers Chords
Red Hot Chili Peppers Bass
Red Hot Chili Peppers Lyrics




this is %500 perfect i promise.
and it took me a long time so
have fun.

intro
-----------------------------------------------------------------------------------
-----------------------------------------------------------------------------------
------------------------------------------3---3-----3---3--------------------------
--5---5-----5---3\---- 1---1-----1---1---------------------0------3----3--------3--


Chorus
------------------------------------------------------------------------------------
------------------------------------------------------------------------------------
------------------------------------------3---3-----3---3-------3-----2-------------
--5---5-----5---3\---- 1---1-----1---1---------------------3-----------------3------


-------------------------------------------------------------------------------
---------------------------------------------------------------------5---------
---------------------------------------------3---3-----3---3------3------------
--5----5----5--3\---1----1----1--1--1h3----------------------0-------------3h5-


--------------------------------------------------------------------------------
--------------------------------------------------------------------------------
----------------------------------------3----3------3---3-----------------------
--5---5-----5---3\----1---1----1---1----------------------0--3--3--3----3--3--3-


verse 1
--------------------------------------------------------------------------------
--------------------------------------------------------------------------------
-0--0--0--0--0--0/-19--19--19--19--19--0--0--0--0--0/-19------------------------
---------------------------------------------------------------19-19--19--19/---

-----------------------------------------------------
-----------------------------------------------------
-0-----0---0----0---0---0/--19---19--19---19--19-----
--------------------------------------------------0--

----------------
----------------
----------------
--3~------5~----


Verse 2
-------------------------------------------------------------------------------------
-------------------------------------------------------------------------------------
-0--0--0--0--0--0/-19----------------------0--0--0--0--0--0/-19---19--19--19--19-----
--------------------------19--19---19--19\-----------------------------------------0-


---------------------------------------
---------------------------------------
---------------------------------------
--3~------5~--------3~---------5~------

----------------------------------------------------------------------------------
----5---------------5-------------------------7---7--7---------7---7---7---7------
---------------------------------------------------------7--7-----7---7---7---7\--
-3----3---3--3--3----3--3---3--3--3--5--5-----------------------------------------


Chorus
---------------------------------------------------------------------------------------
---------------------------------------------------------------------------------------
------------------------------------3--3--3--3--3--------------------------------------
5--5--5--3\--1--1--1--1--1--1h3-----------------0--3--3--3--3--4--4--5--5--5--5--5--3/-

----------------------------------------------------------------------------------------
----------------------------------------------------------------------------------------
---------------------------3--3--3---5--3--3----3--2--2---------------------------------
--1---1--1---1--1--1h3-----------------------3-----------3--3--4--5---5--5---5--3--3--3-


----------------------------------------------------------------------
----------------------------------------------------------------------
-----------------------3---3--3---3--3--------------------------------
-1---1--1---1---1/3--------------------0--3---3--3--3--3--3--3--3-----



verse 1
---------------------------------------------------------------------------------
---------------------------------------------------------------------------------
-0--0--0--0--0--0/-19--19--19--19--19--0--0--0--0--0/-19-------------------------
----------------------------------------------------------------19-19--19--19/---

-------------------------------------------------------
-------------------------------------------------------
-0-----0---0----0---0---0/--19---19--19---19--19-------
---------------------------------------------------0--

----------------
----------------
----------------
--3~------5~---



Verse 2
-------------------------------------------------------------------------------------
--------------------------------------------------------------------------------------
-0--0--0--0--0--0/-19----------------------0--0--0--0--0--0/-19---19--19--19--19------
--------------------------19--19---19--19\-----------------------------------------0--


-------------------------------------------
-------------------------------------------
-------------------------------------------
--3~------5~--------3~---------5~----------

------------------------------------------------------------------------------------
----5---------------5-------------------------7---7--7---------7---7---7---7--------
---------------------------------------------------------7--7-----7---7---7---7\----
-3----3---3--3--3----3--3---3--3--3--5--5-------------------------------------------

Chorus
------------------------------------------------------------------------------------
------------------------------------------------------------------------------------
-------------------------3--3--3--3--3--------------3--2----------------------------
1--1--1--1--1--1h3-------------------0--3--3--3---------3--5--5--5--5--5--5--3\-----



--------------------------------------------------------------------------------------
--------------------------------------------------------------------------------------
-----------------------3---3--3---3--3-------3--3--2--2--5----------------------------
-1---1--1---1--1--1-------------------0--3-----------------5--5--5--5---5--3--3--3\---

Bridge
------------------------------------------------------------------------------------
------------------------------------------------5---------5-------------------------
-----------------------3---3--3---3--3----------------------------------7---5--7----
-1---1--1---1--0--0--------------------0---3----3---3----3--3--3--0-------------0---


-----------------------------------------------------------------------------------
---------------------------------------------------------------------7---5--7------
--7-----5--7------------------------------------10---9-------0--0-----------0------
---------------0--5--7---8---8--7--8---8---10---------10---------------------------

----------------------------------------------------------------------------------
----------------------------------------------------------------------------------
--7-----5--7-------------------------------------10--9--7--9--10--7---------------
---------------0---0--5--7----8---8--7--8---8------------------------10-----------


------------------------------------------------------------------------------------
--------7---5--7--------------------------------------------------------------------
--0--0-------------0---7--5--7-----------------------------------------10----9------
----------------------------------0--0--5--7---8----8--7--8--8---10------------10---

------------------------------------------------------------------------------------
------------------------------------------------------------------------------------
------7---5--7------7---7---5--7------------------------------------10------9-------
--0--------------0----0------------0--5--7--8----8--7--8---8--10--------------10----


Guitar Solo
-----------------------------------------------
-----------------------------------------------
-----------------------------------------------
--5--5--5---5--3--1--1--1--1---1--1--1--1------


---------------------------------------------------------
---------------------------------------------------------
--3--3--3--3--3--3--3---------------------3--2--2--------
------------------------0--3---3--3--3--3-----------3---



Outro-Play Chorus till end



Get this song at amazon.com      Ebay     Ringtones Ringtones  


Learn to play: Songwriting, Piano, Harmonica, Guitar
More Red Hot Chili Peppers lyrics available at Muzikum

Related Red Hot Chili Peppers Bass Tabs

Song: Savior bass
Give It Away(correct) bass
Sexmaniac (cant Stop) bass
If You Want Me To Stay bass
Under The Bridge (100% Correct) bass
Stadium Arcadium bass
The Song That Made Us What We Are Today bass
Taste The Pain (correct Chorus And Intro) bass
Baby Appeal bass
Fu bass
Dosed bass
Tell Me Baby(100% Accurate) bass
Chili Peppers Blow bass
This Is The Place(bueno) bass
Theyre Red Hot bass
Road Trippin bass
Breaking The Girl! bass
Dani California (turned Into Tabs From Notes) bass
Baby Appea bass
Easily bass


Guitar Tabs









All tabs are property and copyright of their owners. All tabs provided for educational purposes only. Privacy Policy, DMCA