Red Hot Chili Peppers

Organic Anti-beat Box Band Bass Tabs



More from Red Hot Chili Peppers

Red Hot Chili Peppers Tabs
Red Hot Chili Peppers Chords
Red Hot Chili Peppers Bass
Red Hot Chili Peppers Lyrics



ORGANINC ANTI-BEATBOX BAND
RHCP
BY YT23W
End with one of these
Verse /========================
G------------------------------|-----------|-------|-----------|
D-------2--2--5---7------2---2-|----5---7--|-------|----7---5--|
A------------------------------|-----------|-------|-----------|
E-00--0--0------3---00-0--0----|-33---55---|-6-5-3-|-55---33---|

Chorus:
G----4-4-4-------4-4-4-------4-4-4-------4-4-4--------------------------------|
D-----------------------------------------------------------------------------|
A-2--------2--2--------2--2--------2--2--------5--5--4-5--7---5-7-7-5-7-7-5-7-|
E-----------------------------------------------------------------------------|

Solo x3
G--------------------------|
D-4--2---------------------|
A-------5--4--2-------2----|
E----------------5-5-----3-|

With help from Fidget(bassist of Half Moon)'s tab
(I still have Fidget's chorus)

For more bass tabs go to www.geocities.com/yt23w/index.html






Get this song at amazon.com      Ebay     Ringtones Ringtones  


Learn to play: Songwriting, Piano, Harmonica, Guitar
Also available at Muzikum: Red Hot Chili Peppers - Organic Anti-beat Box Band lyrics

Related Red Hot Chili Peppers Bass Tabs

Blood Sugar Sex Magik Album bass
Castles Made Of Sand bass
Instrumental #1 bass
Knock Me Down bass
Fu bass
Snow Hey Oh bass
Snow bass
Warm Tape bass
Californication (perfect) bass
Tearjerker bass
By The Way 100% Full Song "read My Bio" bass
This Is The Place 100% Perfect bass
Can't Stop bass
Strip My Mind bass
Nobody Weird Like Me bass
Walkabout bass
Storm In A Teacup bass
Californication (super Alternative For Introduction) bass
Bullet Proof bass
Funny Face bass


Guitar Tabs









All tabs are property and copyright of their owners. All tabs provided for educational purposes only. Privacy Policy, DMCA