Red Hot Chili Peppers

Organic Anti Beat Box Band Bass Tabs



More from Red Hot Chili Peppers

Red Hot Chili Peppers Tabs
Red Hot Chili Peppers Chords
Red Hot Chili Peppers Bass
Red Hot Chili Peppers Lyrics



Intro 0:03

G-------------------------/----------------------/

D------2-2----------------/------2-2-----5----7--/

A-------------5-----5-----/----------------------/

E--0--x-x--0-----3--------/--0--x-x--0--3-3--5-5-/



G-------------------7-----/----------------------/

D------2-2----------------/------2-2-------------/

A-------------5-----------/----------------------/

E--0--x-x--0-----3--------/--0--x-x--0-3-6-5-3---/



Verse 1 0:12

G-------------------------/----------------------/\

D------2-2----------------/------2-2-----5----7--/ \

A-------------5-----5-----/----------------------/ \

E--0--x-x--0-----3--------/--0--x-x--0--3-3--5-5-/ \

3x

G-------------------------/----------------------/ /

D------2-2----------------/------2-2-------------/ /

A-------------5-----5-----/----------------------/ /

E--0--x-x--0-----3--------/--0--x-x--0-3-6-5-3---//



Chorus 1 0:39

Fast Fast

G-----\-----/-------/-----\-----/-------/

D------9-9-9-----9--/------9-9-9-----9--/

A-------------------/-------------------/

E-5/7 x-x-x--5-7----/-5/7-x-x-x--5-7----/



\Fast / \Fast /

G------7-7-7-----7--/------9-9-9-----9--/

D-------------------/-------------------/

A-3/5-x-x-x--3-5----/-5/7-x-x-x--5-7----/

E-------------------/-------------------/



Verse 2 0:48

G-------------------------/----------------------/\

D------2-2----------------/------2-2-----5----7--/ \

A-------------5-----5-----/----------------------/ \

E--0--x-x--0-----3--------/--0--x-x--0--3-3--5-5-/ \

4x

G-------------------------/----------------------/ /

D------2-2----------------/------2-2-------------/ /

A-------------5-----5-----/----------------------/ /

E--0--x-x--0-----3--------/--0--x-x--0-3-6-5-3---//



Chorus 2 1:24

Fast Fast

G-----\-----/-------/-----\-----/-------/

D------9-9-9-----9--/------9-9-9-----9--/

A-------------------/-------------------/

E-5/7 x-x-x--5-7----/-5/7-x-x-x--5-7----/



\Fast / \Fast /

G------7-7-7-----7--/------9-9-9-----9--/

D-------------------/-------------------/

A-3/5-x-x-x--3-5----/-5/7-x-x-x--5-7----/

E-------------------/-------------------/



Interlude 1:33

G-------------------------/----------------------/

D------2-2----------------/------2-2-----5----7--/

A-------------5-----5-----/----------------------/

E--0--x-x--0-----3--------/--0--x-x--0--3-3--5-5-/



G-------------------------/----------------------/

D------2-2----------------/------2-2-------------/

A-------------5-----5-----/----------------------/

E--0--x-x--0-----3--------/--0--x-x--0-3-6-5-3---/



Guitar Solo 1:42

G---------------------/\

D---------------------/ \

A-7/9-7-5--42--0-2----/ 4x

E------------3-----3--/ /



Verse 3 2:00

G-------------------------/----------------------/\

D------2-2----------------/------2-2-----5----7--/ \

A-------------5-----5-----/----------------------/ \

E--0--x-x--0-----3--------/--0--x-x--0--3-3--5-5-/ \

4x

G-------------------------/----------------------/ /

D------2-2----------------/------2-2-------------/ /

A-------------5-----5-----/----------------------/ /

E--0--x-x--0-----3--------/--0--x-x--0-3-6-5-3---//



Chorus 3 2:36

Fast Fast

G-----\-----/-------/-----\-----/-------/

D------9-9-9-----9--/------9-9-9-----9--/

A-------------------/-------------------/

E-5/7 x-x-x--5-7----/-5/7-x-x-x--5-7----/



Fast Fast

G-----\-----/-------/-----\-----/-------/

D------9-9-9-----9--/------9-9-9-----9--/

A-------------------/-------------------/

E-5/7 x-x-x--5-7----/-5/7-x-x-x--5-7----/



\Fast / \Fast /

G------7-7-7-----7--/------9-9-9-----9--/

D-------------------/-------------------/

A-3/5-x-x-x--3-5----/-5/7-x-x-x--5-7----/

E-------------------/-------------------/



Everybody singing 2:49

G-------------------------/----------------------/\

D------2-2----------------/------2-2-----5----7--/ \

A-------------5-----5-----/----------------------/ \

E--0--x-x--0-----3--------/--0--x-x--0--3-3--5-5-/ \

6x

G-------------------------/----------------------/ /

D------2-2----------------/------2-2-------------/ /

A-------------5-----5-----/----------------------/ /

E--0--x-x--0-----3--------/--0--x-x--0-3-6-5-3---//



Outro 3:45

G-------------------------/----------------------/

D------2-2----------------/------0-0-----5----7--/

A-------------5-----5-----/----------------------/

E--0--x-x--0-----3--------/--0--x-x--0--3-3--5-5-/



G-------------------7-----/----------------------/

D------2-2----------------/------2-2-------------/

A-------------5-----------/----------------------/

E--0--x-x--0-----3--------/--0--x-x--0-3-6-5-3-0-/

Added by tabs-database.com and our distinguished partners
Get this song at amazon.com      Ebay     Ringtones Ringtones  


Learn to play: Songwriting, Piano, Harmonica, Guitar
More Red Hot Chili Peppers lyrics available at Muzikum

Related Red Hot Chili Peppers Tabs

Can't Stop (plus Lyrics) tabs
True Men Dont Kill Coyotes (2) tabs
Teenager In Love (2) tabs
Monarchy Of Roses tabs
Fight Like A Brave (2) tabs
Out In La tabs
Yertle The Turtle tabs
Love Trilogy tabs
Around The World2 tabs
Midnight tabs
American Ghostdance tabs
Time tabs
Blackeye Blonde tabs
Boys In The Hood tabs
Mercy Mercy tabs
Teenager In Love tabs
Battle Ship tabs
Give It Away tabs
Pea tabs
Hey tabs


Guitar Tabs









All tabs are property and copyright of their owners. All tabs provided for educational purposes only. Privacy Policy, DMCA

Online converter - videoconverter.com