Red Hot Chili Peppers

One Of Fleas Funky Solos Bass Tabs



More from Red Hot Chili Peppers

Red Hot Chili Peppers Tabs
Red Hot Chili Peppers Chords
Red Hot Chili Peppers Bass
Red Hot Chili Peppers Lyrics




h=hammer on
p=pull off
G------------------------------------
D-----------0h2--2--3--4--2--2--3--4-
A-------0h2p-------------------------
E-3-3--------------------------------

G----------------------------------------------
D-------------------0h2--2--3--4--2--2--3--4----
A------0h2p-----0h2p---------------------------
E-3-3------3-3---------------------------------



Get this song at amazon.com      Ebay     Ringtones Ringtones  


Learn to play: Songwriting, Piano, Harmonica, Guitar
More Red Hot Chili Peppers lyrics available at Muzikum

Related Red Hot Chili Peppers Bass Tabs

Venice Queen bass
Ill Be Your Domino bass
Slane Castle Jam 2 bass
Love Rollercoaster bass
Tell Me Baby bass
On Mercury bass
Californication(100%correct Really) bass
Dani California (perfect) bass
Blackeyed Blonde bass
F U bass
Love Trilogy bass
Can't Stop bass
Carbon bass
Naked In The Rain (authors File) bass
All Around The World bass
Around The World(corrected) bass
Flea Solo (great!!) bass
Under The Bridge Intro On Bass bass
Nothin But A G Thang Cover bass
Religion bass


Guitar Tabs









All tabs are property and copyright of their owners. All tabs provided for educational purposes only. Privacy Policy, DMCA