Red Hot Chili Peppers

Off The Map : Jam Bass Tabs



More from Red Hot Chili Peppers

Red Hot Chili Peppers Tabs
Red Hot Chili Peppers Chords
Red Hot Chili Peppers Bass
Red Hot Chili Peppers Lyrics




This is played after If you have to ask

^=Bend

G--------7----5-------55-5-0-5-5--6-7--------7---5-----55-5-0-5-5-6-7--------
D------------------------------------------------------------------------------------
A--5------------------------------------------5---------------------------------------------
D----------------------------------------------------------------------------------------
This bit played very fast:

G--x 12 10------10-----------------------------------------------------------------------------------
D------------12------12-10-12-10------10-----------------------------------------------------------
A--------------------------------------12------12-10-12-10------10-------------------------------
D-----------------------------------------------------------------14-------14--12--14--10---------

G-----------------------------------------------------------------------------------10----------------------
D----------------7---------10-8-7---------7--8-7-------------------------7-8---------------------------
A--------8-10-----8---8----------8----8-----------8-----------------------------------8-------------------
D----12---------------------------------------------------12--10~~~-10--------------------12-10~~~---

G----------------------------------------------------------------
D------7--8-7--------------------------------------------------
A--8-----------8---------------0--1----x--3-x----------------
D------------------12-10~~~----------------------x-0--------

G----------------------------10-9--------7------------------------------------------------------------5------
D-------------------8-7------------10-------8-7----------10---------12--------14---------5--------------
A------------8-7--------8------------------------------------------------------------------------03------------
D----7-8-7------------------------------------------0-8-------0-10-----0-12---------0-3-------------
--
G---------------------------------------------------------------------------------------------
D-----------------------------------------------------------------------------------------------
A----------------------------1--0-------------------------------1--0----------------------------
D--0-0-3-00-3-0-3-2-0----------5--0-0-3-00-3-0-3-2-0---------------------------------

G---------------------------------------------------------------------------------------------
D-----------------------------------------------------------------------------------------------
A----------------------------1--0-------------------------------1--0----------------------------
D--0-0-3-00-3-0-3-2-0----------5--0-0-3-00-3-0-3-2-0---------------------------------

G---------------------------10--------------------------------------------------10~~----14 14 1414---
D----------------10------------------10------12-10----------------10------------------------------
A---------12---------12--------12------12----------12--------12---12-------------------------
D---0~----------------------------------------------------0-----------------------------------------

G-----------------------10-------------------------------------------------10--------------------------
D------------10------------------10------12---10-----------------10------------12-10-----10--------
A------12--------12--------12------12-------------12-------12------12----------------12------------
D--0-----------------------------------------------------0----------------------------------------------

G-------------------------------------------------------------------------------------------------------------
D---12-10-----10------------------------------------------------------------------------------------------
A-----------12--------0---3-0-2-0-3-0-2-0-3-0-2-0----0---3-0-2-0-3-0-2-0-3-0-2-0-------------
D--------------------------------------------------------------------------------------------------------

G-------------------------------------------------------------------------------------------------------------
D----------------------------------------3-0-3-0-3-0-3-0-33-0-------333-0--333-0-555-0---------
A--3-0-2-0-3-0-2-0-3-0-2-0-3-0---------------------------------------------------------------------------
D-------------------------------------------------------------------------------------------------------

G--555------------------------555---555-----5555h777-5h777-5h777-5h7-7777h999-9----------
D---------0---333-0-333-0-------0-------0-----------------------------------------------------
A-------------------------------------------------------------------------------------------------
D---------------------------------------------------------------------------------------------

G--9999h10-10-10-10-10101010h 12-12-12-12-12121212h14141414---14 15 14141515---------------
D--------------------------------------------------------------------------------------------------------------
A------------------------------------------------------------------------------------------------------------------
D---------------------------------------------------------------------------------------------------------------

G--17-17 19-19-19-19-19-19-19------------------------------------
D---------------------------------------------------------------------------
A---------------------------------------------------------------------------
E---------------------------------------------------------------------------

G----------------------------------------------^---^-----------------------------------
D----^----^----------^---^--------------------9--8---^---^--------------------------------
A---3----4----------3--4---^------------------------8---9----^------------------------------
E----------------0-----------3---------------------------------3------------------



Get this song at amazon.com      Ebay     Ringtones Ringtones  


Learn to play: Songwriting, Piano, Harmonica, Guitar
More Red Hot Chili Peppers lyrics available at Muzikum

Related Red Hot Chili Peppers Bass Tabs

Show Me Your Soul bass
Suck My Kiss bass
Slow Cheetah bass
Purple Stain bass
Dosed bass
On Murcury bass
Stick Jam(live) bass
Fleas Funkadelic Jam bass
Bunker Hill bass
Mellowship In Slinky B Major bass
Black Cross bass
Song That Made Us What We Are Today bass
All Around The World bass
Pretty Little Ditty bass
Knock Me Down bass
Subway To Venus bass
Wet Sand bass
Flea Bass Solo:arpeggiating bass
Californication bass
Green Heaven bass


Guitar Tabs









All tabs are property and copyright of their owners. All tabs provided for educational purposes only. Privacy Policy, DMCA