Red Hot Chili Peppers

Naked In Rain Bass Tabs



More from Red Hot Chili Peppers

Red Hot Chili Peppers Tabs
Red Hot Chili Peppers Chords
Red Hot Chili Peppers Bass
Red Hot Chili Peppers Lyrics




Naked in the Rain
Red Hot Chili Peppers
Tabbed by: Mags Bondoc


This song is not overly difficult, but it isn't easy either.
This is really good for improving slap technique.
I'll just give you the verse, chorus, and solo.
The outro is just the verse line.

The intro is an open A

Verse
All slap bass
The rest is very important
G|----------------
D|----5------5-5--
A|----------------
E|3/5---0-35----0- x8
r

G|----7------7-7--
D|----------------
A|3/5---0-35----0-
E|---------------- x3
r


G|----7------7-7--
D|----------------
A|3/5---0-35----1-
E|---------------- x1
r

G|----------------
D|----5------5-5--
A|----------------
E|3/5---0-35----0- x2
r

Chorus
Two measures fingerpicked (almost)
Two measures slapped
Follow that pattern
G|5-------------------------------
D|3---------------5---------------
A|----------------3---------------
E|--------------------------------

G|----------------
D|----5------5-5--
A|----------------
E|3/5---0-35----0- x2
r

G|5-------------------------------
D|3-----------------------------3-
A|-----------0-1-23----------/5---
E|--------------------------------
r t t

G|----------------
D|----5------5-5--
A|----------------
E|3/5---0-35----0- x2
r

Solo
Just have fun, it's a cool solo
*** are triplets
G|--------------------------------
D|--------------------------x3-35-
A|----x1-x3-x4-45-----x1-x34------
E|3-5------------03-5------------0
r r

***
G|-----------------------7-97-9107-- that is a 10
D|-----3-053------------8-8--8----8-
A|----x-----53-4-1------------------
E|3-5--------------3-5--------------
r

G|1214141214141214141214141012129 those are 12s 14s and 10s
D|-------------------------------
A|-------------------------------
E|-------------------------------

G|1010899787766-5-05- those are 10s
D|-------------------
A|-------------------
E|-------------------

G|--------------3-6618-18-1819191715---- those are 18s 19s 17s and 15
D|----53-----3-5-5------------------17\-
A|-------5-6----------------------------
E|3-5-----------------------------------
r



Get this song at amazon.com      Ebay     Ringtones Ringtones  


Learn to play: Songwriting, Piano, Harmonica, Guitar
More Red Hot Chili Peppers lyrics available at Muzikum

Related Red Hot Chili Peppers Bass Tabs

By The Way 100% Full Song "read My Bio" bass
Wet Sand (complete) bass
Religion bass
Hard To Concentrate bass
Jungle Man bass
Hyde Park Bass Solo #2 bass
Stone cold bush intro bass
Don t forget me bass
Breaking The Girl! bass
Get Up And Jump bass
Salute To Kareem bass
Naked In Rain bass
Aeroplane bass
123456 bass
Stone Cold Bush bass
Under The Bridge (live) bass
What It Is (aka Nina's Song) bass
Midnight bass
Funny Face bass
Universally Speaking bass


Guitar Tabs









All tabs are property and copyright of their owners. All tabs provided for educational purposes only. Privacy Policy, DMCA