Red Hot Chili Peppers

Minor Thing Bass Tabs



More from Red Hot Chili Peppers

Red Hot Chili Peppers Tabs
Red Hot Chili Peppers Chords
Red Hot Chili Peppers Bass
Red Hot Chili Peppers Lyrics



cool song well here it goes

Verse:

G---------------------|--------------------------|
D-4-4-4-4-4-4-4-4-4-4-|--------------------------|
A---------------------|-4-5-5-5-5-5-5-5-5-5-5-2-2|
E---------------------|--------------------------|

Verse 2:

G---------------------|--------------------------|
D-7-7-7-7-7-7-7-7-7-7-|--------------------------|
A---------------------|-7-5-5-5-5-5-5-5-5-5-5-2-2|
E---------------------|--------------------------|

Verse fill:

G----------------|
D----------------|
A--------7-5-5-55|
E-5-5-55---------|

Chorus: (best if you slap)

G------------------|
D------------------|
A------------------|
E-2--222-222-22-5-6|

Ending:

G----------------------------------|-----------------------------|
D-14-14-14-14-14-14----------14-16-|-----------------------------|
A-------------------12-14-16-------|------------------16-14-12---|
E----------------------------------|14-14-14-14-14-14----------16|

Order:

Verse x3
Verse 2 x1
Verse fill x2
Chorus x2
Verse x3
Verse 2 x1
Verse fill x2
Chorus x4
Verse x4 (during solo)
Verse 2 x2
Ending as many times as need so versions are longer than others!

Important! play with it add stuff to it like FLEA dose because everyone knows hes the
best bass player (ya even better then you)

Brought to you by the BassMasta - http://www.tabs-database.com



Get this song at amazon.com      Ebay     Ringtones Ringtones  


Learn to play: Songwriting, Piano, Harmonica, Guitar
Also available at Muzikum: Red Hot Chili Peppers - Minor Thing lyrics

Related Red Hot Chili Peppers Bass Tabs

Paralell Universe(right Position) bass
Suck My Kiss (in Detail) bass
Dani Califoina bass
One Big Mob bass
Flea Bass Solo:arpeggiating bass
Emit Remmus bass
All Around The World bass
On Murcury bass
C'mon Girl (perfect) bass
Turn It Again bass
This Is The Place bass
Chili Peppers Blow bass
Stick Jam(live) bass
Organic Anti-beat Box Band bass
Pea~flea bass
Yertle The Turtle bass
Give It Away bass
Out Of Range bass
Hollywood bass
Dosed (perfect ;) bass


Guitar Tabs









All tabs are property and copyright of their owners. All tabs provided for educational purposes only. Privacy Policy, DMCA