Red Hot Chili Peppers

Midnight Bass Tabs



More from Red Hot Chili Peppers

Red Hot Chili Peppers Tabs
Red Hot Chili Peppers Chords
Red Hot Chili Peppers Bass
Red Hot Chili Peppers Lyrics

Song: Midnight

Artist: Red Hot Chili Peppers

Album: By the way

Bassist: Flea



Tabbed by Marcos Prieto (webmaster at tabs-database.com.com)





Notation legend:



\ | /

3 -> triplet, 3 notes in 2 beats.

x -> mute.

\ -> slide up. \ It can be after or before the note, like 1h3,

/ -> slide down. | but if there's no enought space it can be

h -> hammer on. | over or down, like G|-13-...

p -> pull off. / D|--h-...

~ -> let ring.

r -> rest.

S -> slap.

P -> pop.

+ + -> the rhythm of the song, generally 4x4. If there are 2 digits notes

or there's no enough space, I lengthen it,

from (+ + ...) to (+ + ...)

|------| -> repeat this a number of times, for example |3-3-3-3| x4

repeats 3-3-3-3 four times.



Intro:



(0.23):



F#m

+ . + . + . + . + . + . + . + .

G|11----9-------------------------|--------------------------------|

D|------------12----11----9-------|--------------------------------|

A|----------------------------12--|------------9-------------------|

E|--------------------------------|10----12------------------------|



F#m

+ . + . + . + . + . + . + . + .

G|11----9-------------------------|--------------------------------|

D|------------12----11----9-------|--------------------------------|

A|----------------------------12--|9-----12----9-------------------|

E|--------------------------------|--------------------------------|



Verse 1:



F#m D

+ . + . + . + . + . + . + . + .

G|11----9-------------------------|--------------------------------|

D|------------12----11----9-------|--------------------------------|

A|----------------------------12--|------------9-------------------|

E|--------------------------------|10----12------------------------|



F#m D (3)

+ . + . + . + . + . + . + . + .

G|11----9-------------------------|--------------------------------|

D|------------12----11----9-------|--------------------------------|

A|----------------------------12--|9-----12----9---------------12r-|

E|--------------------------------|--------------------------------|



Bm (5) D

+ . + . + . + . + . + . + . + .

G|11----9-------------------------|--------------------------------|

D|------------12----11----9-------|--------------------------------|

A|----------------------------12--|------------9-------------------|

E|--------------------------------|10----12------------------------|



Bm D (3)

+ . + . + . + . + . + . + . + .

G|--------------------------------|--------------------------------|

D|9-----7-----9-----7-----9---7---|--------------------------------|

A|--------------------------------|9-------------------------------|

E|--------------------------------|------12----10------------------|



Bm D

+ . + . + . + . + . + . + . + .

G|11----9-------------------------|--------------------------------|

D|------------12----11----9-------|--------------------------------|

A|----------------------------12--|------------9-------------------|

E|--------------------------------|10----12------------------------|



F#m D (3)

+ . + . + . + . + . + . + . + .

G|11----9-------------------------|----------------------------9-r-|

D|------------12----11----9-------|------------------------9h11----|

A|----------------------------12--|9-----12----9-------------------|

E|--------------------------------|--------------------------------|



Bm (5) D

+ . + . + . + . + . + . + . + .

G|11----9-------------------------|--------------------------------|

D|------------12----11----9-------|--------------------------------|

A|----------------------------12--|------------9-------------------|

E|--------------------------------|10----12------------------------|



Bm D (3)

+ . + . + . + . + . + . + . + .

G|--------------------------------|--------------------------------|

D|9-----7-----9-----7-----9---7---|--------------------------------|

A|--------------------------------|9-------------------------------|

E|--------------------------------|------12----10------------------|



Pre-Chorus:



A E F C

+ . + . + . + . + . + . + . + .

G|----9-------------------9-------|--------10r---------------------|

D|7-------7-r---------9-----------|----10------10----------10-r--x-|

A|------------7-------------------|8-------------------12----------|

E|--------------------------------|--------------------------------|



A E F

+ . + . + . + . + . + . + . + .

G|----9-------------------9-------|--------10----------------------|

D|7-------7-r---------9-----------|----10--------------10----------|

A|------------7-----------------x-|8-------------x-8-------------x-|

E|--------------------------------|--------------------------------|



F

+ . + . + . + .

G|--------10----------------------|

D|----10--------------------------|

A|8---------------8-8-----8-8-7-5-|

E|----------------------8---------|



Chorus 1:



C G D C G D

+ + + + + + + + + + + + + + + +

G|----------------|----------------|----------------|----------------|

D|----------------|--4-7-----------|----------------|--4-7-----------|

A|3-r-------------|5--------------0|3-3------------0|5---------------|

E|------3---3-3---|------5---5-5---|------3---3-3---|------5---5-5---|



C G D C G D

+ + + + + + + + + + + + + + + +

G|----------------|----------------|----------------|----------------|

D|----------------|--4-7-----------|----------------|----------------|

A|3-3------------0|5--------------0|3-3-------------|5--45---5-545---|

E|------3---3-3---|------5---5-5---|------3---3-3---|----------------|





+ + + +

G|---6777---------|

D|----------------|

A|5--------4555-4-|

E|----------------|



Verse 2:



F#m D

+ . + . + . + . + . + . + . + .

G|11----9-------------------------|--------------------------------|

D|------------12----11----9-------|--------------------------------|

A|----------------------------12--|------------9-------------------|

E|--------------------------------|10----12------------------------|



F#m D (3)

+ . + . + . + . + . + . + . + .

G|11----9-------------------------|----------------------------11r-|

D|------------12----11----9-------|------------------------9h11----|

A|----------------------------12--|9-----12----9--------9-9--------|

E|--------------------------------|--------------------------------|



Bm (5) D

+ . + . + . + . + . + . + . + .

G|11----9-------------------------|--------------------------------|

D|------------12----11----9-------|------------------------------7-|

A|----------------------------12--|------------9---------------9---|

E|--------------------------------|10----12------------------------|



Bm D (3)

+ . + . + . + . + . + . + . + .

G|--------------------------------|--------------------------------|

D|9-----7-----9-----7-----9---7---|--------------------------------|

A|--------------------------------|9-------------------------------|

E|--------------------------------|------12----10------------------|



F#m D

+ . + . + . + . + . + . + . + .

G|11----9-------------------------|--------------------------------|

D|------------12----11----9-------|--------------------------------|

A|----------------------------12--|------------9-------------------|

E|--------------------------------|10----12------------------------|



F#m D (3)

+ . + . + . + . + . + . + . + .

G|11----9-------------------------|----------------------------9---|

D|------------12----11----9-------|------------------------129---11|

A|----------------------------12--|9-----12----9--------912--------|

E|--------------------------------|----------------------h---------|



Bm (5) D

+ . + . + . + . + . + . + . + .

G|11----9-------------------------|--------------------------------|

D|------------12----11----9-------|--------------------------------|

A|----------------------------12--|--------------/-/---------------|

E|--------------------------------|10----12----101214--------------|



Bm D (3)

+ . + . + . + . + . + . + . + .

G|--------------------------------|-----------------------(9)------|

D|9-----7-----9-----7-----9---7---|--------------------------------|

A|--------------------------------|9-------------------------------|

E|--------------------------------|------12----10------10----------|





Pre-Chorus:



A E F C

+ . + . + . + . + . + . + . + .

G|----9-------------------9-------|--------10r---------------------|

D|7-------7-r---------9-----------|----10------10----------10-r--x-|

A|------------7-----------------x-|8-------------------12----------|

E|--------------------------------|--------------------------------|



A E F

+ . + . + . + . + . + . + . + .

G|----9-------------------9-------|--------10--------------10------|

D|7-------7-r---------9-----------|----10--------------10----------|

A|------------7-----------------x-|8-------------x-8---------------|

E|--------------------------------|--------------------------------|



F

+ . + . + . + .

G|--------10--------------10------|

D|----10--------------------------|

A|8---------------8-8---8---8-7-5-|

E|--------------------------------|



Chorus 2:



C G D C G D

+ + + + + + + + + + + + + + + +

G|----------------|----------------|----------------|----------------|

D|----------------|--4-7-----------|----------------|4---------------|

A|3--33-----------|5---------------|3-3-------------|--7-5-----------|

E|------3---3-3---|------5---5-5-5-|------3---3-3---|------5---5-5---|



C G D C G D

+ + + + + + + + + + + + + + + +

G|----------------|----------------|----------------|----------------|

D|----------------|--4-7-----------|----------------|----------------|

A|3-3-------------|5--------------0|3-3-------------|5--55---5-555-5-|

E|------3---3-3---|------5---5-5---|------3---3-3---|----------------|



D

+ + + +

G|----------------|

D|----------------|

A|5-55555-55555555|

E|----------------|





Pre-Chorus 3:



A E F C

+ . + . + . + . + . + . + . + .

G|----9-------------------9-------|--------10r---------------------|

D|7-------7-r---------9-----------|----10------10----------10-r--x-|

A|------------7-----------------7-|8-------------------12----------|

E|--------------------------------|--------------------------------|



A E F C

+ . + . + . + . + . + . + . + .

G|----9-------------------9-------|--------10r---------------------|

D|7-------7-r---------9-----------|----10------10----------10-r--x-|

A|------------7-----------------x-|8-------------------12----------|

E|--------------------------------|--------------------------------|



A E F C

+ . + . + . + . + . + . + . + .

G|----9-------------------9-------|--------10r---------------------|

D|7-------7-r---------9-----------|----10------10----------10-r--x-|

A|------------7-----------------x-|8-------------------12----------|

E|--------------------------------|--------------------------------|



A E F

+ . + . + . + . + . + . + . + .

G|----9-------------------9-------|------------------------10------|

D|7-------7-r---------9-----------|--------------------10----------|

A|------------7-----------------x-|8---8---8---8---8-----------8---|

E|--------------------------------|--------------------------------|



F

+ . + . + . + .

G|--------------------------------|

D|--------------------------------|

A|8---8---8---8---8-8---8---8-7-5-|

E|--------------------------------|



Chorus 3:



C G D C G D

+ + + + + + + + + + + + + + + +

G|----------------|----------------|----------------|----------------|

D|----------------|--4-7-----------|----------------|4---------------|

A|3---------------|5---------------|3-3-------------|--7-5-----------|

E|------3---3-3---|------5---5-5-5-|------3---3-3---|------5---5-5---|



C G D C G D

+ + + + + + + + + + + + + + + +

G|----------------|----------------|----------------|----------------|

D|----------------|--4-7-----------|----------------|----------------|

A|3-3-------------|5--------------0|3-3-------------|5--55-5-5-555-5-|

E|------3---3-3---|------5---5-5---|------3---3-3---|----------------|



D

+ + + +

G|----------------|

D|----------------|

A|5-555-5-555-5-5-|

E|----------------|



C G D C G D

+ + + + + + + + + + + + + + + +

G|----------------|----------------|----------------|----------------|

D|----------------|--4-7-----------|----------------|4---------7-7---|

A|3---------------|5---------------|3-3-------------|--7-5-----------|

E|------3---3-3---|------5---5-5-5-|------3---3-3---|------5---------|



C G D C G D

+ + + + + + + + + + + + + + + +

G|----------------|----------------|----------------|----------------|

D|----------------|--4-7-----7-7---|----------------|----------------|

A|3-3------------0|5---------------|3-3-------------|5-555-5-5-555-5/|

E|------3---3-3---|------5---------|------3---3-3---|----------------|



D

+ . + . + . + .

G|--------------------------------|

D|--------------------------------|

A|17171717171717171717171717\-----|

E|--------------------------------|



C G D C G D

+ + + + + + + + + + + + + + + +

G|----------------|----------------|----------------|----------------|

D|----------------|--4-7-----------|----------------|--4-7-----------|

A|3---------------|5---------------|3-3-------------|5---------------|

E|------3---3-3---|------5---5-5---|------3---3-3---|------5---5-5---|



C G D C G D

+ + + + + + + + + + + + + + + +

G|----------------|----------------|----------------|----------------|

D|----------------|--4-7-----------|----------------|--0---0---0---0-|

A|3-3-------------|5---------------|3-3-------------|5---5---5---5---|

E|------3---3-3---|------5---5-5---|------3---3-3---|----------------|



D A

+ + + + + + + + + + + + + + + +

G|----------------|7---7---7---7---|7---7---7---7---|----------------|

D|--0---0---0---0-|--7---7---7---7-|--0---0---0-----|7~--------------|

A|5---5---5---5---|----------------|----------------|----------------|

E|----------------|----------------|----------------|----------------|



__ _ __ __ _____ _____ _____

/ | / | / | / `\ / ___/ / __ / ( __/

/ |/ | / /|| / /) / // / / // \ \

/ /| /|| / /^|| / /|| //___ / / // ___) )

/ / | / || / / || / / || / / / ^^/ / /

^^^^^^^^^^^^^^^^^^^^^^^^^^^^^^^^^^^^^^^^^^^^^^^^^Added by tabs-database.com and our distinguished partners
Get this song at amazon.com      Ebay     Ringtones Ringtones  


Learn to play: Songwriting, Piano, Harmonica, Guitar
More Red Hot Chili Peppers lyrics available at Muzikum

Related Red Hot Chili Peppers Tabs

Cant Stop tabs
Special Secret Song Inside tabs
Tearjerker tabs
True Men Dont Kill Coyotes Bass tabs
Blue Monday tabs
Sikamikahingo tabs
Cabron Bass tabs
Parallel Universe Bass tabs
Tiny Dancer Live Cover tabs
Mellowship Slinky In B Major (2) tabs
Strip My Mind Bass tabs
Black Cross tabs
Warlocks tabs
Areoplane tabs
Stinky Sweaty Man tabs
Otherside Guitar Tab tabs
Dont Forget Me tabs
Yertle The Turtle Bass tabs
If tabs
Funny Face tabs


Guitar Tabs









All tabs are property and copyright of their owners. All tabs provided for educational purposes only. Privacy Policy, DMCA