Red Hot Chili Peppers

Mellowship Slinky Tabs



More from Red Hot Chili Peppers

Red Hot Chili Peppers Tabs
Red Hot Chili Peppers Chords
Red Hot Chili Peppers Bass
Red Hot Chili Peppers Lyrics

Red Hot Chili Peppers
Mellowship Slinky In B Major
By Anthony Kiedis, Flea, John Frusciante and Chad Smith
Blood Sugar Sex Magik (1991)

Emil Gasanov (strat182@hotmail.com)

Notation Legend
---------------
h - Hammer-On
p - Pull-Off
b - Bend
B - Bend (grace note) (bend as fast as you can)
r - Release Bend
. - Staccato Phrasing (showed above the notes)
~ - Vibrato
x - Fret-Hand Muting (percussive tone)
/ - Shift Slide Up
 - Shift Slide Down
_
/ - Legato Slide Up (only first note picked)
_
 - Legato Slide Down (only first note picked)
_
s - Legato Slide (grace note) (slide as fast as you can)
mf - Mezzo Forte (medium loud)
f - Forte (loud)

Timing
------
q - 1/4 note
e - 1/8 note
e. - doted 1/8 note
s - 1/16 note
triol - three 1/16 notes that equal by timing to 1/8 note
s+q - 1/16 note + 1/4 note

Q - 1/4 break
E - 1/8 break
E. - doted 1/8 break
S - 1/16 break
Q+H - 1/4 + 1/2 break
E+Q - 1/8 + 1/4 break
S+Q - 1/16 + 1/4 break

-----------------------------------------------------------------------------------------------

Time Signature: 4/4

Intro
-----
Moderate Funk  q = 86

Gtr. 1 (dist.)
f

   Riff A
   N.C.
                     .  .                    .  .                            
  .  .
   e  E  e  E  e  E  e  e    s s S s S s s s e  e  s e.     e  E  e  E  e  E 
  e  e
e|-------------------------|------------------------------|-------------------------|
B|-------------------------|------------------------------|-------------------------|
G|-------------------------|------------------------------|-------------------------|
D|-------------------------|------------------------------|-------------------------|
A|-4-----3-----2-----5--6--|-7-----------5---7--7--5-7---|-4-----3-----2-----5--6--|
E|-------------------------|---0---0---7---7--------------|-------------------------|

                                                       .  .                  
   .  .
   s s S s S s s s s s S s S s s s   e  E  e  E  e  E  e  e    s s S s S s s 
s e  e  s e.
e|---------------------------------|-------------------------|------------------------------|
B|---------------------------------|-------------------------|------------------------------|
G|---------------------------------|-------------------------|------------------------------|
D|---------------------------------|-------------------------|------------------------------|
A|-7-----------5---7-----------5---|-4-----3-----2-----5--6--|-7-----------5---7--7--5-7---|
E|---0---0---7---7---0---0---7---7-|-------------------------|---0---0---7---7--------------|

                                               End Riff A
                                                         (B7)
                     .  .                                    .  .   .  .   .
   e  E  e  E  e  E  e  e    s s S s S s s s s s E+Q      E  e  e   e  e   e 
  E  e
e|-------------------------|----------------------------|----7--------------------------|
B|-------------------------|----------------------------|-------10--9--10--9------------|
G|-------------------------|----------------------------|------------------------7b7.5--|
D|-------------------------|----------------------------|-------------------------------|
A|-4-----3-----2-----5--6--|-7-----------5---7----------|-------------------------------|
E|-------------------------|---0---0---7---7---0--------|-------------------------------|
                                                          w/ clean tone
                                                          mf

      .                    .  .   .  .   .                         .
   E  e  Q+H            E  e  e   e  e   e  E  e        E  e.  e.  e  E+Q
e|--------------------|----7--------------------------|----------------------|
B|--------------------|-------10--9--10--9------------|----------------------|
G|----9---------------|------------------------7b7.5--|----------------------|
D|--------------------|-------------------------------|----9---8---7---------|
A|--------------------|-------------------------------|----------------------|
E|--------------------|-------------------------------|----------------------|

Verse
-----

   N.C.(B7)
      .  .   .  .   .
   E  e  e   e  e   e  E  e        E  e   E  e      E  e    Q
e|----7--------------------------|-------------------------------|
B|-------10--9--10--9------------|-------------------------------|
G|------------------------7b7.5--|-------------------------------|
D|-------------------------------|----9~~------------------------|
A|-------------------------------|-----------5b5.5---------------|
E|-------------------------------|---------------------5~~-------|

      .  .   .  .   .                         .              .  .   .  .   .
   E  e  e   e  e   e  E  e        E  e.  e.  e  E+Q      E  e  e   e  e   e 
  E  e
e|----7--------------------------|----------------------|----7--------------------------|
B|-------10--9--10--9------------|----------------------|-------10--9--10--9------------|
G|------------------------7b7.5--|----------------------|------------------------7b7.5--|
D|-------------------------------|----9---8---7---------|-------------------------------|
A|-------------------------------|----------------------|-------------------------------|
E|-------------------------------|----------------------|-------------------------------|

                                 .  .   .  .   .                         .
   E  e   E  e  E  e   Q      E  e  e   e  e   e  E  e        E  e.  e.  e  
E+Q
e|--------------------------|----7--------------------------|----------------------|
B|--------------------------|-------10--9--10--9------------|----------------------|
G|--------------------------|------------------------7b7.5--|----------------------|
D|----9~~----7--------------|-------------------------------|----9---8---7---------|
A|-----------------5~~------|-------------------------------|----------------------|
E|--------------------------|-------------------------------|----------------------|

      .  .   .  .   .
   E  e  e   e  e   e  E  e        E  e      Q    E.  e     s   e
e|----7--------------------------|----10B12-----------12B14r12p10b10.5--|
B|-------10--9--10--9------------|--------------------------------------|
G|------------------------7b7.5--|--------------------------------------|
D|-------------------------------|--------------------------------------|
A|-------------------------------|--------------------------------------|
E|-------------------------------|--------------------------------------|

                                   N.C.
      .  .   .  .   .
   E  e  e   e  e   e  E  e        E  e.  e.  e.   e.  e    e.  e.  e   e.  
e.  e
e|----7--------------------------|------------------------|------------------------|
B|-------10--9--10--9------------|------------------------|------------------------|
G|------------------------7b7.5--|------------------------|------------------------|
D|-------------------------------|----9---8---7-----------|-----------------7---8--|
A|-------------------------------|----------------/9---8--|-7---5---7--/9----------|
E|-------------------------------|------------------------|------------------------|

Chorus
------
w/ chorus
mf

   Rhy. Fig. 1
   Bm                     C#m       Bm                     Bbm
   .                                .
   e  s s S s s s S s S s s s s s   e  s s S s s s S s S s s s s s
e|-7--x-7---x-7-7---7---x-9-9-9-9-|-7--x-7---x-7-7---7---x-6-6-6-6-|
B|-7--x-7---x-7-7---7---x-9-9-9-9-|-7--x-7---x-7-7---7---x-6-6-6-6-|
G|-7--x-7---x-7-7---7---x-9-9-9-9-|-7--x-7---x-7-7---7---x-6-6-6-6-|
D|--------------------------------|--------------------------------|
A|--------------------------------|--------------------------------|
E|--------------------------------|--------------------------------|

   Bm                     C#m       Bm                 Bbm
                                       .         .
   e  s s S s s s S s S s s s s s   e  e  S s E  e  E  s s s s
e|-7--x-7---x-7-7---7---x-9-9-9-9-|-x--7----7----7-----6-6-6-6-|
B|-7--x-7---x-7-7---7---x-9-9-9-9-|-x--7----7----7-----6-6-6-6-|
G|-7--x-7---x-7-7---7---x-9-9-9-9-|-x--7----7----7-----6-6-6-6-|
D|--------------------------------|----------------------------|
A|--------------------------------|----------------------------|
E|--------------------------------|----------------------------|

   Bm                     C#m       Bm                     Bbm
                                    .
   e  s s S s s s S s S s s s s s   e  s s S s s s S s S s s s s s
e|-7--x-7---x-7-7---7---x-9-9-9-9-|-7--x-7---x-7-7---7---x-6-6-6-6-|
B|-7--x-7---x-7-7---7---x-9-9-9-9-|-7--x-7---x-7-7---7---x-6-6-6-6-|
G|-7--x-7---x-7-7---7---x-9-9-9-9-|-7--x-7---x-7-7---7---x-6-6-6-6-|
D|--------------------------------|--------------------------------|
A|--------------------------------|--------------------------------|
E|--------------------------------|--------------------------------|

                                              End Rhy. Fig. 1
   Bm                     C#m       N.C.             F#7sus4

   e  s s S s s s S s S s s s s s   E  e.  e.  e  E   e.  s
e|-7--x-7---x-7-7---7---x-9-9-9-9-|-------------------------|
B|-7--x-7---x-7-7---7---x-9-9-9-9-|-------------------------|
G|-7--x-7---x-7-7---7---x-9-9-9-9-|------------------/9-----|
D|--------------------------------|----9---8---7-----/9-----|
A|--------------------------------|------------------/9---5-|
E|--------------------------------|-------------------------|

Bridge
------

  N.C.(E5)                       (D5)                           (E5)
       .                              .                              .
   s s e  E.  s s s s s S s S s   s s e  E.  s s s s s S s S s   s s e  E.  
s s s s s S s S s
e|------------------------------|------------------------------|------------------------------|
B|------------------------------|------------------------------|------------------------------|
G|------------------------------|------------------------------|------------------------------|
D|--------------------5---------|--------------------5---------|--------------------5---------|
A|-7-5-7------5-7-5-7-----7---4-|-5-4-5------4-5-4-5-----4---5-|-7-5-7------5-7-5-7-----7---4-|
E|------------------------------|------------------------------|------------------------------|

  (D5)                            (E5)
                                       .
   s s s s E  s s s s E  s s s s   s s e  E.  s s s s s S s S s
e|-------------------------------|------------------------------|
B|-------------------------------|------------------------------|
G|-------------------------------|------------------------------|
D|-------------------------------|--------------------5---------|
A|-5-4-5-4----5-4-5-4----5-4-5-4-|-7-5-7------5-7-5-7-----7---4-|
E|-------------------------------|------------------------------|

   (D5)                          (E5)
       .                              .
   s s e  E.  s s s s s S s S s   s s e  E.  s s s s s S s S s
e|------------------------------|------------------------------|
B|------------------------------|------------------------------|
G|------------------------------|------------------------------|
D|--------------------5---------|--------------------5---------|
A|-5-4-5------4-5-4-5-----4---5-|-7-5-7------5-7-5-7-----7---4-|
E|------------------------------|------------------------------|

   (D5)                            G9    Gb9  F9sus4 N.C.

   s s s s E  s s s s E  s s s s   q     q    q      q
e|-------------------------------|------------------------|
B|-------------------------------|-10----9----8-----------|
G|-------------------------------|-10----9----8-----------|
D|-------------------------------|-9-----8----8-----------|
A|-5-4-5-4----5-4-5-4----5-4-5-4-|-10----9----8------5----|
E|-------------------------------|------------------------|

Chorus
------
Gtr. 1: w/ Rhy. Fig. 1, 1st 4 meas.

then:

Gtr. 1: w/ Rhy. Fig. 1, simile

then play Bridge

then:

Guitar Solo
-----------
chorus off
Two gtrs. arr. for one.
f

   N.C.(Bm)

   s s s s s s s s s s  s  s  e   e     e    s e    s e    s e    s e    e
e|-0-0-0-0-0-0-0-0-0-0--0--0--0---0---|-------------------------------------|
B|-0-0-0-0-0-0-0-0-0-0--0--0--0---0---|--_---0--_---0--_---0--_---0--_---0--|
G|-4-4-4-7-7-7-9-9-9-11-11-13-14--16--|-2s4----2s4----2s4----2s4----2s4--0--|
D|------------------------------------|-------------------------------------|
A|------------------------------------|-------------------------------------|
E|------------------------------------|-------------------------------------|

   s s s s s s s s s s  s  s  e   e     e    s e    s e    s e    s e    e
e|-0-0-0-0-0-0-0-0-0-0--0--0--0---0---|-------------------------------------|
B|-0-0-0-0-0-0-0-0-0-0--0--0--0---0---|--_---0--_---0--_---0--_---0--_---0--|
G|-4-4-4-7-7-7-9-9-9-11-11-13-14--16--|-2s4----2s4----2s4----2s4----2s4--0--|
D|------------------------------------|-------------------------------------|
A|------------------------------------|-------------------------------------|
E|------------------------------------|-------------------------------------|

  (Am)

   e  s  s  s s  s s s s s s s s s s   e    s e    s e    s e    s e   e
e|-----------------------------------|-------------------------------------|
B|-----------------------------------|-------------------------------------|
G|------_-------_-----_-----_-----_--|-------------------------------------|
D|----1210---109---97---75---5/7-|-------------------------------------|
A|-0--------0------0-----0-----0-----|--_---0--_---0--_---0--_---0--_---0--|
E|-----------------------------------|-3s5----3s5----3/5----3/5----3/5-----|
   let ring - - - - - - - - - - - - |

   s  s  s  s s s s s s s s s s s e    e    s e    s e    s e    S+Q
e|-----------------------------------|---------------------------------|
B|-----------------------------------|---------------------------------|
G|---_-------_-----_-----_-----_-----|---------------------------------|
D|-1210---109---97---75---5/7-7--|---------------------------------|
A|-------0------0-----0-----0--------|--_---0--_---0--_---0--_---------|
E|-----------------------------------|-3s5----3s5----3/5----3/5--------|
   let ring - - - - - - - - - - - - |

Verse
-----

   N.C.(B7)
      .  .   .  .   .                 .                    .  .   .  .   .
   E  e  e   e  e   e  E  e        E  e  Q+H            E  e  e   e  e   e  
E  e
e|----7--------------------------|--------------------|----7--------------------------|
B|-------10--9--10--9------------|--------------------|-------10--9--10--9------------|
G|------------------------7b7.5--|----9---------------|------------------------7b7.5--|
D|-------------------------------|--------------------|-------------------------------|
A|-------------------------------|--------------------|-------------------------------|
E|-------------------------------|--------------------|-------------------------------|

              .                        .  .   .  .   .                 .
   E  e.  e.  e  S s s  s  triol    E  e  e   e  e   e  E  e        E  e  
Q+H
e|--------------------------------|----7--------------------------|--------------------|
B|--------------------------------|-------10--9--10--9------------|--------------------|
G|------------------_--------_----|------------------------7b7.5--|--------------------|
D|----9---8---7----9/11-10-119p7-|-------------------------------|----9---------------|
A|--------------------------------|-------------------------------|--------------------|
E|--------------------------------|-------------------------------|--------------------|

      .  .   .  .   .                         .              .  .   .  .   .
   E  e  e   e  e   e  E  e        E  e.  e.  e  E+Q      E  e  e   e  e   e 
  E  e
e|----7--------------------------|----------------------|----7--------------------------|
B|-------10--9--10--9------------|----------------------|-------10--9--10--9------------|
G|------------------------7b7.5--|----9---8---7---------|------------------------7b7.5--|
D|-------------------------------|----------------------|-------------------------------|
A|-------------------------------|----------------------|-------------------------------|
E|-------------------------------|----------------------|-------------------------------|

                                 .  .   .  .   .
   E  e   E  e  E  e  E  e    E  e  e   e  e   e  E  e        E  e.  e.  e  
s s  (q)
e|--------------------------|----7--------------------------|-----------------------------|
B|--------------------------|-------10--9--10--9------------|-----------------------------|
G|--------------------------|------------------------7b7.5--|-----------------------------|
D|----9~~----7--------------|-------------------------------|----9---8---7----------------|
A|-----------------5-----5--|-------------------------------|----------------_------------|
E|--------------------------|-------------------------------|---------------5/17-(17)----|
                                                                            
w/ dist.

Outro
-----
Gtr. 1: w/ Riff A
Get this song at amazon.com      Ebay     Ringtones Ringtones  


Learn to play: Songwriting, Piano, Harmonica, Guitar
More Red Hot Chili Peppers lyrics available at Muzikum

Related Red Hot Chili Peppers Tabs

Tearjerker tabs
Dani California Intro tabs
Subway To Venus Solo tabs
Road Trippin tabs
Teenager In Love (2) tabs
Get Up And Jump tabs
Green Heaven tabs
Sir Psycho Sexy tabs
Fortune Faded tabs
Melancholy Mechanics tabs
Pretty Lil Ditty tabs
Funny Face tabs
Hyde Park Intro (live) tabs
American Ghostdance tabs
Hard To Concentrate Bass tabs
Readymade tabs
By The Way Guitar Tab tabs
Havana Affair Bass tabs
The Velvet Glove tabs
The Brothers Cup tabs


Guitar Tabs









All tabs are property and copyright of their owners. All tabs provided for educational purposes only. Privacy Policy, DMCA