Red Hot Chili Peppers

Mellowship Slinky Bass Tabs



More from Red Hot Chili Peppers

Red Hot Chili Peppers Tabs
Red Hot Chili Peppers Chords
Red Hot Chili Peppers Bass
Red Hot Chili Peppers Lyrics




Artist: Red Hot Chili Peppers
Song: Mellowship Slinky In B-Major
Album: Blood Sugar Sex Magik
Tabbed by: Tadej Supukovic

Level: Advanced

------------------------------------------------------------------------------------------------------

Legato-Technics:
h = Hammer-On

Others:
x = Mute (Death-Note): do not press a fret, put only your finger
on the string.

IMPORTANT: You need Slapping-experience. The whole song has
to be slapped.

Intro:
G|---------------------------------|-------------------------------------|
D|---------------------------------|-------------------------------------|
A|-5-4-3-x-5-6-7-----x-7---7-7-5-7-|-5-4-3-x-5-6-7-----x-7---7-----x-7---| x2
E|---------------5-5-----5---------|---------------5-5-----5---5-5-----5-|


Verse:
G|-x-5-0------5-5--5-5---x-5-0-----5-5--3-3-|-x-5-0-----5-5--5-5---x-5-0------5-4-3-|
D|-------3-0-------------------3-0----------|-------3-0------------------3-0--------|
A|------------------------------------------|---------------------------------------| x1
E|------------------------------------------|---------------------------------------|

G|-x-5-0------5-5--5-5---x-5-0-----5-5--5-3-|-x-5-0-----5-5--5-5---x-5-0------5-4-3-|
D|-------3-0-------------------3-0----------|-------3-0------------------3-0--------|
A|------------------------------------------|---------------------------------------| x3
E|------------------------------------------|---------------------------------------|

G|-------------|
D|---------3-5-|
A|-3---3-5-----| x1
E|---5---------|


Verse:
G|5-5--5-5---x-5-0-----5-5--3-3-|-x-5-0-----5-5--5-5---x-5-0------5-4-3-|
D|-----------------3-0----------|-------3-0------------------3-0--------|
A|------------------------------|---------------------------------------| x1
E|------------------------------|---------------------------------------|

G|-x-5-0------5-5--5-5---x-5-0-----5-5--5-3-|-x-5-0-----5-5--5-5---x-5-0------5-4-3-|
D|-------3-0-------------------3-0----------|-------3-0------------------3-0--------|
A|------------------------------------------|---------------------------------------| x1
E|------------------------------------------|---------------------------------------|


Chorus:
G|-----------------------|----------------------|-----------------------|--------------------------|
D|-------------------5---|-------------------3--|-------------------5---|--------------------------|
A|-x-7-5-7---x-7-5-7---7-|-x-5-3-5---x-5-3-5---5|-x-7-5-7---x-7-5-7---7-|-x-5-3-5-3---5-3-5-3---5-3|
x2
E|-----------------------|----------------------|-----------------------|--------------------------|


G|---------|
D|-------5-|
A|-5-4-3---| x1
E|---------|


Verse:
G|5-5--5-5---x-5-0-----5-5--3-3-|-x-5-0-----5-5--5-5---x-5-0------5-4-3-|
D|-----------------3-0----------|-------3-0------------------3-0--------|
A|------------------------------|---------------------------------------| x1
E|------------------------------|---------------------------------------|

G|-x-5-0------5-5--5-5---x-5-0-----5-5--5-3-|-x-5-0-----5-5--5-5---x-5-0------5-4-3-|
D|-------3-0-------------------3-0----------|-------3-0------------------3-0--------|
A|------------------------------------------|---------------------------------------| x2
E|------------------------------------------|---------------------------------------|


Chorus:
G|-----------------------|----------------------|-----------------------|--------------------------|
D|-------------------5---|-------------------3--|-------------------5---|--------------------------|
A|-x-7-5-7---x-7-5-7---7-|-x-5-3-5---x-5-3-5---5|-x-7-5-7---x-7-5-7---7-|-x-5-3-5-3---5-3-5-3---5-3|
x2
E|-----------------------|----------------------|-----------------------|--------------------------|


G|---------|
D|-------5-|
A|-5-4-3---| x1
E|---------|


Bridge:
G|--------------|
D|--------3-5-x-|
A|-3h5--5-------| x4
E|--------------|

G|---------------------|
D|-5h7-7--5h7-5h7--5-3-|
A|---------------------| x2
E|---------------------|

G|---------------------|
D|---------------------|
A|-3h5-5--3h5-3h5--3-1-| x2
E|---------------------|


Verse:
G|-x-5-0------5-5--5-5---x-5-0-----5-5--5-3-|-x-5-0-----5-5--5-5---x-5-0------5-4-3-|
D|-------3-0-------------------3-0----------|-------3-0------------------3-0--------|
A|------------------------------------------|---------------------------------------| x3
E|------------------------------------------|---------------------------------------|


Outro:
G|---------------------------------|-------------------------------------|
D|---------------------------------|-------------------------------------|
A|-5-4-3-x-5-6-7-----x-7---7-7-5-7-|-5-4-3-x-5-6-7-----x-7---7-----x-7---| x2
E|---------------5-5-----5---------|---------------5-5-----5---5-5-----5-|



The whole song have to be slapped. Maybe it's not the correct
tab, but it's "playable" (it's my first Chili Peppers-tab).
Have fun with it!



Get this song at amazon.com      Ebay     Ringtones Ringtones  


Learn to play: Songwriting, Piano, Harmonica, Guitar
More Red Hot Chili Peppers lyrics available at Muzikum

Related Red Hot Chili Peppers Bass Tabs

Easiliy bass
Under The Bridge (live) bass
Organic Anti-beat Box Band bass
This Is The Place 100% Perfect bass
Stick Jam(live) bass
Look Around bass
Cabron bass
Tell Me Baby(100% Accurate) bass
The Is The Place bass
Funky Monks bass
Dosed bass
Transcending bass
Flea Bass Solo:arpeggiating bass
Slane Castle Jam #1 bass
This Is The Place Intro bass
Jungle Man bass
You always sing the same bass
Nobody Weird Like Me bass
Easily With Triads bass
Rolling Sly Stone bass


Guitar Tabs









All tabs are property and copyright of their owners. All tabs provided for educational purposes only. Privacy Policy, DMCA