Red Hot Chili Peppers

Mellowship Slinky In B Major Bass Tabs



More from Red Hot Chili Peppers

Red Hot Chili Peppers Tabs
Red Hot Chili Peppers Chords
Red Hot Chili Peppers Bass
Red Hot Chili Peppers Lyrics

Mellowship slinky in B major
                     From Blood Sugar Sex Magik
                                 by
                        Red Hot Chili Peppers


                       Tabbed by Rasmus Blanck

I've been looking for a bass tab of this song for quite long now, and 
when I couldn't find it, I decided to tab it myself.

This is the intro to the song: play it twice, but withouth the last four 
notes second time.
G|-----------------------------------|
D|-----------------------------------|
A|-4--3--2--5-6-7-------5--7-7-5-7---|
E|----------------0-0--7-7-----------|
      
G|--------------------------------------|
D|--------------------------------------|
A|-4--3--2--5-6-7-------5--7-------5----|
E|----------------0-0--7-7---0-0--7-7---|

This should be the main bass figure, play it loads of times.
G|-----------------------------------------|
D|---9-7--------9--999---9-7--------9--777-|
A|-------6-7-----------------6-7-----------|
E|-7---------7---------7---------7---------|
             ^                   ^

G|-------------------------------------------|
D|---9-7--------9--999---9-7--------9--8--7--|
A|-------6-7-----------------6-7-------------|
E|-7---------7---------7---------7-----------|
             ^                   ^

Then play this, during the 'Good God' part.

G|------------------------------------------------|
D|-------------------5------------------4---------|
A|-----5h7-5h7---7-7---7--4h5-4h5---5-5---5-------|
E|--------------7------------------5--------(5)---|

Then you play the main figure a bit, the good god thingie, main figure 
again, and then the outro, wich is same as the intro.

Feel free to mail me at gulfisk@hotmail.com

______________________________________________________
Get Your Private, Free Email at http://www.hotmail.com
Get this song at amazon.com      Ebay     Ringtones Ringtones  


Learn to play: Songwriting, Piano, Harmonica, Guitar
Also available at Muzikum: Red Hot Chili Peppers - Mellowship slinky in B Major lyrics

Related Red Hot Chili Peppers Bass Tabs

Hyde Park: Bass Solo #3 bass
Taste The Pain (correct Chorus And Intro) bass
The Is The Place bass
Hey Bass Tab bass
Higher Ground (complete) bass
Instrumental #1 bass
Mexican Maid bass
Off The Map Around The World bass
Californication (perfect) bass
Cmon Girl bass
Deep Kick bass
They're Red Hot bass
Turn It Again bass
Midnight bass
Suck My Kiss bass
Overfunk (b-side) (corrected) bass
Get On Top bass
Ill Be Your Domino bass
Subway To Venus (complete) bass
Special Secret Song Inside bass


Guitar Tabs









All tabs are property and copyright of their owners. All tabs provided for educational purposes only. Privacy Policy, DMCA