Red Hot Chili Peppers

Make You Feel Better Bass Tabs



More from Red Hot Chili Peppers

Red Hot Chili Peppers Tabs
Red Hot Chili Peppers Chords
Red Hot Chili Peppers Bass
Red Hot Chili Peppers Lyrics




Song: Make You Feel Better
Artist: Red Hot Chili Peppers
Album: Stadium Arcadium

Tabbed By: Marcos Prieto (marcrow_ps@yahoo.es)

Notation legend:

x -> mute.
\ -> slide up. \ It can be after or before the note,
like 1h3,
/ -> slide down. | but if there's no enought space it can be

h -> hammer on. | over or down, like G|-13-...
p -> pull off. / D|--h-...
~ -> let ring.
r -> rest.
S -> slap.
P -> pop.
+ + -> the rhythm of the song, generally 4x4. If there are 2
digits notes
or there's no enough space, I lengthen it,
from (+ + ...) to (+ + ...)
|------| -> repeat this a number of times, for example |3-3-3-3| x4
repeats 3-3-3-3 four times.

Verse 1:

+ + + + +
G||----------------||
D|----------------|
A|-----REST-------|
E||----------------||x8

(0:15)

Em Bm C G
+ + + + + + + + + + + + + + + +
G||----------------|----------------|----------------|----------------||
D|----------------|9---------------|10--------------|----------------|
A|7---------------|----------------|----------------|10--------------|
E||----------------|----------------|----------------|----------------|| x2

Em Bm C G
+ + + + + + + + + + + + + + + +
G||----------------|----------------|------9---------|----------------||
D|------------7---|9---------------|10----------10--|----------------|
A|7-----10--------|----------------|----------------|10--------------|
E||----------------|----------------|----------------|----------------|| x2

Em Bm C G
+ + + + + + + + + + + + + + + +
G||----------------|----------------|----------------|----------------||
D|----------------|9---------------|10--------------|----------------|
A|7---------------|----------------|----------------|10--------------|
E||----------------|----------------|----------------|----------------|| x2

Em Bm C G
+ + + + + + + + + + + + + + + +
G|----------------|----------------|------9---------|----------------|
D|------------7---|9---------------|10----------10--|----------------|
A|7-----10--------|----------------|----------------|10--------------|
E|----------------|----------------|----------------|----------------|

Em Bm C G
+ + + + + + + + + + + + + + + +
G|----------------|----------------|------9---------|----------------|
D|------------7---|9---------------|10----------10--|----------------|
A|7-----10--------|----------------|----------------|10------10------|
E|----------------|----------------|----------------|----------------|

Chorus 1:

G D (5) Em (5) C (5)
+ + + + + + + + + + + + + + + +
G||----------------|----------------|----------------|----------------|
D|----------------|7-----7---7-7---|9-----9---9-9---|----------------|
A|10----10--1010--|----------------|----------------|10------101010--|
E||----------------|----------------|----------------|----------------|

G D (5) Em (5) C
+ + + + + + + + + + + + + + + +
G|----------------|----------------|----------------|----------------||
D|----------------|7-----7---7-7---|9-----9---9-9---|10--10--10--10--|
A|10----10--1010--|----------------|----------------|----------------|
E|----------------|----------------|----------------|----------------|| x2

Verse 2:

+ + + + + + + + +
G||----------------|| |----------------|
D|----------------| |----------------|
A|-----REST-------| |--------14\\\\\\|
E||----------------||x7 |----------------|

Em Bm C G
+ + + + + + + + + + + + + + + +
G||----------------|----------------|----------------|----------------||
D|----------------|9---------------|10--------------|----------------|
A|7---------------|----------------|----------------|10--------------|
E||----------------|----------------|----------------|----------------|| x2

Em Bm C G
+ + + + + + + + + + + + + + + +
G|----------------|----------------|----------------|----------------|
D|----------------|9---------------|10--------------|----------------|
A|7---------------|----------------|----------------|10------10--9---|
E|----------------|----------------|----------------|----------------|

Em Bm C G
+ + + + + + + + + + + + + + + +
G|----------------|----------------|----------------|----------------|
D|----------------|9---------------|10--------------|----------------|
A|7---------------|----------------|----------------|10------10------|
E|----------------|----------------|----------------|----------------|

Chorus 2:

G D (5) Em (5) C (5)
+ + + + + + + + + + + + + + + +
G|----------------|----------------|----------------|----------------|
D|----------------|7-----7---7-7---|9-----9---9-9---|----------------|
A|10----10--1010--|----------------|----------------|10--1010--1010--|
E|----------------|----------------|----------------|----------------|

G D (5) Em (5) C
+ + + + + + + + + + + + + + + +
G|----------------|----------------|----------------|----------------|
D|----------------|7-----7---7-7---|9-----9---9-9---|10----1010--10--|
A|10----10--1010--|----------------|----------------|----------------|
E|----------------|----------------|----------------|----------------|

G D (5) Em (5) C (5)
+ + + + + + + + + + + + + + + +
G|----------------|----------------|----------------|----------------|
D|----------------|7-----7---7-7---|9-----9---9-9---|----------------|
A|10----10--1010--|----------------|----------------|10----10--1010--|
E|----------------|----------------|----------------|----------------|

G D (5) Em (5) C
+ + + + + + + + + + + + + + + +
G|----------------|----------------|----------------|----------------|
D|----------------|7-----7---7-7---|9-----9---9-9---|10--10--10--10--|
A|10----10--1010--|----------------|----------------|----------------|
E|----------------|----------------|----------------|----------------|

Bridge:

D Em
+ + + + + + + + + + + + + + + +
G|----------------|----------------|----------------|----------------|
D|------------9---|12--9-----------|--------7---9---|7---------------|
A|----9---12------|--------12--9---|7---10----------|----10--7-------|
E|10--------------|----------------|----------------|------------10--|

C Am C
+ + + + + + + + + + + + + + + +
G|----------------|----------------|----------------|----------------|
D|------------7---|10--7-----------|----------------|----------------|
A|----7---10------|--------10--7---|--------5/7-----|----7---8---10--|
E|8---------------|----------------|5---8-------5---|8---------------|

Verse 3:

Em Bm C G
+ + + + + + + + + + + + + + + +
G||----------------|----------------|----------------|----------------||
D|----------------|9---------------|10--------------|----------------|
A|7---------------|----------------|----------------|10--------------|
E||----------------|----------------|----------------|----------------|| x4

Em Bm C G
+ + + + + + + + + + + + + + + +
G|----------------|----------------|------9---------|----------------|
D|------------7---|9-------9-------|10----------10--|----------------|
A|7-----10--------|----------------|----------------|10------9---10--|
E|----------------|----------------|----------------|----------------|

Em Bm C G
+ + + + + + + + + + + + + + + +
G|----------------|----------------|------9-----12--|----------------|
D|------------7---|9-----7-----9---|10--------------|----------------|
A|7-----10--------|----------------|----------------|10----1010101010|
E|----------------|----------------|----------------|----------------|

Chorus 3:

G D (5) Em (5) C (5)
+ + + + + + + + + + + + + + + +
G|----------------|----------------|----------------|----------------|
D|----------------|7-----7---7-7---|9-----9---9-9---|----------------|
A|10----10--1010--|----------------|----------------|10--1010--1010--|
E|----------------|----------------|----------------|----------------|

G D (5) Em (5) C
+ + + + + + + + + + + + + + + +
G|----------------|----------------|----------------|----------------|
D|----------------|7-----7---7-7---|9-----9---9-9---|10---10101010---|
A|10----10--1010--|----------------|----------------|----------------|
E|----------------|----------------|----------------|----------------|

G D (5) Em (5) C (5)
+ + + + + + + + + + + + + + + +
G|----------------|----------------|----------------|----------------|
D|----------------|7-----7---7-7---|9-----9---9-9---|----------------|
A|10----10--1010--|----------------|----------------|10----10--1010--|
E|----------------|----------------|----------------|----------------|

G D (5) Em (5) C
+ + + + + + + + + + + + + + + +
G|----------------|----------------|----------------|----------------|
D|----------------|7-----7---7-7---|9-----9---9-9---|10--10--10--10--|
A|10----10--1010--|----------------|----------------|----------------|
E|----------------|----------------|----------------|----------------|

G D (5) Em (5) C (5)
+ + + + + + + + + + + + + + + +
G|----------------|----------------|----------------|----------------|
D|----------------|7-----7---7-7---|9-----9---9-9---|----------------|
A|10----10--1010--|----------------|----------------|10----10--1010--|
E|----------------|----------------|----------------|----------------|

G D (5) Em (5) C
+ + + + + + + + + + + + + + + +
G|----------------|----------------|----------------|----12------12--|
D|----------------|7-----7---7-7---|9-----9---9-9---|10------10------|
A|10----10--1010--|----------------|----------------|----------------|
E|----------------|----------------|----------------|----------------|

G D (5) Em (5) C (5)
+ + + + + + + + + + + + + + + +
G|----------------|----------------|----------------|----------------|
D|----------------|7-----7---7-7---|9-----9---9-9---|----------------|
A|10----10--1010--|----------------|----------------|10----10--1010--|
E|----------------|----------------|----------------|----------------|

G D (5) Em (5) C
+ + + + + + + + + + + + + + + +
G|----------------|----------------|----------------|----------------|
D|----------------|7-----7---7-7---|9-----9---9-9---|10--10--9---7---|
A|10----10--1010--|----------------|----------------|----------------|
E|----------------|----------------|----------------|----------------|

G
+ + + +
G|----------------|
D|----------------|
A|10~-------------|
E|----------------|


__ _ __ __ _____ _____ _____
/ | / | / | / `\ / ___/ / __ / ( __/
/ |/ | / /|| / /) / // / / // \ \
/ /| /|| / /^|| / /|| //___ / / // ___) )
/ / | / || / / || / / || / / / ^^/ / /
^^^^^^^^^^^^^^^^^^^^^^^^^^^^^^^^^^^^^^^^^^^^^^^^^



Get this song at amazon.com      Ebay     Ringtones Ringtones  


Learn to play: Songwriting, Piano, Harmonica, Guitar
Also available at Muzikum: Red Hot Chili Peppers - Make You Feel Better lyrics

Related Red Hot Chili Peppers Bass Tabs

Shes Only 18 bass
What Is Soul bass
Battle Ship bass
Body Of Water bass
I Could Have Lied bass
Jungle Man bass
This Velvet Glove bass
Fire bass
Purple Stain(complete) bass
Salute To Kareem bass
What Is Soul (from Off The Map) bass
Californication(100%correct Really) bass
Soul To Squeeze (complete) bass
Fortune Faded bass
Arpeggiating bass
Time bass
Fleas Funkadelic Jam(woodstock 99') bass
Bunker Hill bass
Punk Rock Classic bass
Johnny kick a hole in the sky bass


Guitar Tabs









All tabs are property and copyright of their owners. All tabs provided for educational purposes only. Privacy Policy, DMCA