Red Hot Chili Peppers

Love Trilogy Bass Tabs



More from Red Hot Chili Peppers

Red Hot Chili Peppers Tabs
Red Hot Chili Peppers Chords
Red Hot Chili Peppers Bass
Red Hot Chili Peppers Lyrics



Song : Love trilogy
Band : Red Hot Chili Peppers

G|---------------------------------------------------------------------
D|---------------------------------------------------------------------
A|-----------------------------------2-2--------5-5--------2-2-------5-5
E|-0---0----0----0-----0-------0-0-0------3-3-3------0-0-0-----3-3-3---

G|---------------------------------------------------------------------
D|---------------------------------------------------------------------
A|-------2-2-------5-5---------2-2------5-5--------2-2------5-5--------
E|-0-0-0-----3-3-3-------0-0-0-----3-3-3-----0-0-0-----3-3-3-----------

G|---------------------------------------------------------------------
D|---------------------------------------------------------------------
A|-...-------2-2-----5-5-4-4-2-2---------2-2------5-5-4-4-2-2------...-----
E|-...0-0-0-0----3-3-------------0-0-0-0-----3-3--------------0-0--0-0...--

G|---------------------------------------------------------------------
D|---------------------------------------------------------------------
A|-5-5-4-4-2-2--5-5-4-4-2-2-5-5-4-4-2-2-5-5-4-4-2-0--------------------
E|--------------------------------------------------3-0----------------

G|--14^-12-----------------------7/9-----7-----------9-----6------6h7--
D|-------------12----------------7/9-7-5---7---------------------------
A|----------14-----14-0-*--------------------7-----7---7-7----7-7------
E|-----------------------12--------------------------------------------

G|---------------------------------------7-9-------7h9-0----4-5-7-----
D|-h7--7h9p7p*-----------5-----7---------------------------------------
A|-------------7------------------------------0-7---------7-------7----
E|-------------------3/7----/9----0-0----------------------------------

G|--7h9-0---7-9-------
D|--------------------
A|--------7-----0-7---
E|--------------------

G|-7-9-------7h9-0----4-5-7-----
D|---------------------------------------
A|-------0-7---------7-------7----
E|---------------------------------

Verse 2
G|---------------------------------------------------------------------
D|---------------------------------------------------------------------
A|---------------------------------------------------------------------
E|--7-7-7-7-7-7-7-7-7-7-7-7-7-7-7-7-7-5-5-5-5-5-5-5-5-5-5-5-5-5-5-5-etc

Outro
G|---------------------------------------------------------------------
D|----6---6h7-6--------4---4h5-4---------2---2h3-2---------------------
A|--7---7-------7-0--5---5-------5-0---3---3-------3---0---------------
E|---------------------------------------------------0-----------------

Taken from The BassMasta -- http://www.tabs-database.com



Get this song at amazon.com      Ebay     Ringtones Ringtones  


Learn to play: Songwriting, Piano, Harmonica, Guitar
Also available at Muzikum: Red Hot Chili Peppers - Love Trilogy lyrics

Related Red Hot Chili Peppers Bass Tabs

Love Trilogy bass
Make You Feel Better bass
Deep Kick bass
Righteous And The Wicked bass
Look Around bass
Havana Affair bass
Californication (live At Slane) bass
Felas Cock bass
Desecration Smile bass
Soul To Squeeze (complete) bass
Yertle The Turtle bass
Lovin And Touchin bass
Factory Of Faith bass
Wet Sand (complete) bass
Californiacation bass
Scar Tissue bass
Tear bass
Good Time Boys bass
Green Heaven bass
Subway To Venus (complete) bass


Guitar Tabs









All tabs are property and copyright of their owners. All tabs provided for educational purposes only. Privacy Policy, DMCA