Red Hot Chili Peppers

Lets Make Evil Bass Tabs



More from Red Hot Chili Peppers

Red Hot Chili Peppers Tabs
Red Hot Chili Peppers Chords
Red Hot Chili Peppers Bass
Red Hot Chili Peppers Lyrics



Artist: Red Hot Chili Peppers
Song: Let's Make Evil
Album: My Friends single (1995)
Notes:
~ - Let Ring
h - Hammer-On
B - Bend

Verse 1:
G|------------------------------------------------------|
D|------------------------------------------------------|
A|------------------------------------------------------|
E|--(0-2)----0-0-2----0-0-2----0-0-2----0-0-2----0-0-2--| (x3)
( ) - First time only

G|------------------------------------|
D|------------------------------------|
A|-----------0------------2-4---------|
E|--0-0-2------2---0-0-2-------0-0-2--|

G|----------------------------------------|
D|----------------------------------------|
A|----------------------------------------|
E|--0-0-2----0-0-2----0-0-2----0-0-2---2--|

Rest

G|-----------------------------------------------------|
D|-----------------------------------------------------|
A|-----------------------------------------------------|
E|-0-0-2----0-0-2----0-0-2----0-0-2----0-0-2----0-0-2--| (x4)


Chorus: Flea is doing more than this but I can't tell what it is
so just make up your own fills
G|------------------------------------|
D|------------------------------------|
A|---7~-------5~-------4~-------5~----|
E|------------------------------------| (x2)

G|----------------------------|
D|----------------------------|
A|-7-7-7-7-7-7-7-7-7-7-7-7-7--|
E|----------------------------|



Verse 2:
G|----------------------------------------------------|
D|----------------------------------------------------|
A|----------------------------------------------------|
E|--0-2----0-0-2----0-0-2----0-0-2----0-0-2----0-0-2--|

G|-----------------------|
D|--4-2------------------|
A|------4-3-2-------2-4--|
E|------------4-3-2------|

G|------------------------------------|
D|------------------------------------|
A|------------------------------------|
E|--0-0-2----0-0-2----0-0-2----0-0-2--| (x2)

G|------------------------------------|
D|------------------------------------|
A|-----------0------------2-4---------|
E|--0-0-2------2---0-0-2-------0-0-2--|

G|---------------------------------------------|
D|---------------------------------------------|
A|---------------------------------------------|
E|--0-0-2----0-0-2----0-0-2----0-0-2----0-0-2--| (x2)

G|------------------------------------|
D|------------------------------------|
A|------------------------------------|
E|--0-0-2----0-0-2----0-0-2----0-0-2--| (x2)

G|------------------------------------|
D|------------------------------------|
A|-----------0------------2-4---------|
E|--0-0-2------2---0-0-2-------0-0-2--|

G|---------------------------------------------|
D|---------------------------------------------|
A|---------------------------------------------|
E|--0-0-2----0-0-2----0-0-2----0-0-2----0-0-2--| (x2)

G|------------|
D|------------|
A|------------|
E|--0-0-2-----|


Chorus:
G|------------------------------------|
D|------------------------------------|
A|---7~-------5~-------4~-------5~----|
E|------------------------------------|

G|-------------------------------------------------|
D|---------------------------------5/7-7-7-7-7-7-7-|
A|---7~-------5~-------4~-------5~-----------------|
E|-------------------------------------------------|


Interlude:
G|--------------------------------------|
D|--------------------------------------|
A|-9-9-9-7-9-9-7-9-9-9-7-9-9-7-9-9-7-7--|
E|--------------------------------------|

G|--------------------------------------------------|
D|--------------------------------------------------|
A|-11-11-11-9-11-11-9-11-11-11-9-11-11-9-11-11-9-9--|
E|--------------------------------------------------|

G|----------------------------------------------------|
D|----------------------------------------------------|
A|-12-12-12-10-12-12-10-12-12-12-10-12-12-12-10-12-12-|
E|----------------------------------------------------| (x2)

G|--------------------------------------|
D|--------------------------------------|
A|-9-9-9-7-9-9-7-9-9-9-7-9-9-7-9-9-7-7--|
E|--------------------------------------|

G|--------------------------------------------------|
D|--------------------------------------------------|
A|-11-11-11-9-11-11-9-11-11-11-9-11-11-9-11-11-9-9--|
E|--------------------------------------------------|

G|----------------------------------------------------|
D|----------------------------------------------------|
A|-12-12-12-10-12-12-10-12-12-12-10-12-12-12-10-12-12-|
E|----------------------------------------------------|

G|----------------------------------------------------|
D|-------------------10-------------------------------|
A|-12-12-12-10-12-12----12-12-12-10-12-12-12-10-12-12-|
E|----------------------------------------------------|

G|--------------------------------------|
D|--------------------------------------|
A|-9-9-9-7-9-9-7-9-9-9-7-9-9-7-9-9-7-7--|
E|--------------------------------------|

G|--------------------------------------------------|
D|--------------------------------------------------|
A|-11-11-11-9-11-11-9-11-11-11-9-11-11-9-11-11-9-9--|
E|--------------------------------------------------|

G|----------------------------------------------------|
D|----------------------------------------------------|
A|-12-12-12-10-12-12-10-12-12-12-10-12-12-12-10-12-12-|
E|----------------------------------------------------|

G|----------------------------------------------------|
D|-------------------10-------------------------------|
A|-12-12-12-10-12-12----12-12-12-10-12-12-12-10-12-12-|
E|----------------------------------------------------|

G|--------------------------------------|
D|--------------------------------------|
A|-9-9-9-7-9-9-7-9-9-9-7-9-9-7-9-9-7-7--|
E|--------------------------------------|

G|--------------------------------------------------|
D|--------------------------------------------------|
A|-11-11-11-9-11-11-9-11-11-11-9-11-11-9-11-11-9-9--|
E|--------------------------------------------------|

G|----------------------------------------------------|
D|----------------------------------------------------|
A|-12-12-12-10-12-12-10-12-12-12-10-12-12-12-10-12-12-|
E|----------------------------------------------------| (x2)



Verse 3:
G|------------------------------------------------------|
D|------------------------------------------------------|
A|------------------------------------------------------|
E|--(0-2)----0-0-2----0-0-2----0-0-2----0-0-2----0-0-2--| (x3)
( ) - First time only

G|------------------------------------|
D|------------------------------------|
A|-----------0------------2-4---------|
E|--0-0-2------2---0-0-2-------0-0-2--|

G|----------------------------------------|
D|----------------------------------------|
A|----------------------------------------|
E|--0-0-2----0-0-2----0-0-2----0-0-2---2--|


Drum Fill


G|-------------------------------------|
D|-------------------------------------|
A|-------------------------------------|
E|---0-0-2----0-0-2----0-0-2----0-0-2--| (x2)

G|------------------------------------|
D|------------------------------------|
A|-----------0------------2-4---------|
E|--0-0-2------2---0-0-2-------0-0-2--|

G|--------------------------------------------|
D|--------------------------------------------|
A|--------------------------------------------|
E|--0-0-2----0-0-2----0-0-2----0-0-2---0-0-2--| (x2)


Chorus:
G|------------------------------------|
D|------------------------------------|
A|---7~-------5~-------4~-------5~----|
E|------------------------------------|

G|-------------------------------------------------|
D|---------------------------------5/7-7-7-7-7-7-7-|
A|---7~-------5~-------4~-------5~-----------------|
E|-------------------------------------------------|


Guitar Solo:
G|--------------------------------------|
D|--------------------------------------|
A|-9-9-9-7-9-9-7-9-9-9-7-9-9-7-9-9-7-7--|
E|--------------------------------------|

G|--------------------------------------------------|
D|--------------------------------------------------|
A|-11-11-11-9-11-11-9-11-11-11-9-11-11-9-11-11-9-9--|
E|--------------------------------------------------|

G|--------------------------------------------------------------|
D|-------------------------------------------------------Fill---|
A|-12-12-12-10-12-12-10-12-12-12-10-12-12-12-10-12-12-----------|
E|--------------------------------------------------------------|

Fills
1 |----------------------------------------------------|
|----------------------------------------------------|
|-12-12-12-10-12-12-10-12-12-12-10-12-12-12-10-12-12-|
|----------------------------------------------------|


2 |---------------------------------------------|
|---------------------------------------------|
|-12-12-10/14-14-14-14-14-13-13-13-13-12-12---|
|---------------------------------------------|

3 |----------------------------------------------------|
|----------------------------------------------------|
|-12-12-12-10-12-12-10-12-12-12-10-12-12-12-10-12-12-|
|----------------------------------------------------|

4 |-----------------------------------------|
|-----------------------------------------|
|-12/14-14-14-15-15-15-17-17-17-20-20-20--|
|-----------------------------------------|

5 |-----------------------------------------|
|-----------------------------------------|
|-12/14-14-14-16-16-16-14-14-14-12-12-12--|
|-----------------------------------------|

6 |------------------|
|------------------|
|---------2-2-4-4--|
|-2-2-4-4----------|

7 |----------------------------------------|
|----------------------------------------|
|-12/14-14-14-15-15-15-16-16-16-15-15-15-|
|----------------------------------------|

8 |------------------------------------------|
|-7/15-15-14-14-12-12-9-9h11-9h11-9h11-----|
|--------------------------------------7h9-|
|------------------------------------------|

8 |-------------------------------------------------|
|-------------------------------------------------|
|-12/20-20-19-19-17-17-14-14h16-14h16-14h16-------|
|-------------------------------------------12h14-|


Outro:
G|-------------------------------------------------|
D|-------------------------------------------------|
A|-9-7-9-7-9-7-9-7-9-11-9-11-9-11-9-11-9-11-9-11-9-|
E|-------------------------------------------------|

G|--------------------------------------------------------|
D|--------------------------------------------------------|
A|-12-10-12-10-12-10-12-10-12-14-12-14-12-14-12-14-12-14--|
E|--------------------------------------------------------|

G|-------------------------------------------------|
D|-------------------------------------------------|
A|-9-7-9-7-9-7-9-7-9-11-9-11-9-11-9-11-9-11-9-11-9-|
E|-------------------------------------------------|

G|---------------------------------------------------------------|
D|----------------------5/16-16-16-14-14-14-11-11-11-9-9-9-9-----|
A|-12-10-12-10-12-10-12------------------------------------------|
E|-----------------------------------------------------------2~~-|
B

Taken from The BassMasta -- http://www.tabs-database.com



Get this song at amazon.com      Ebay     Ringtones Ringtones  


Learn to play: Songwriting, Piano, Harmonica, Guitar
Also available at Muzikum: Red Hot Chili Peppers - Let's Make Evil lyrics

Related Red Hot Chili Peppers Bass Tabs

Backwoods3 bass
Overfunk (bside) bass
Turn It Again bass
Under The Bridge (guitar Intro For Bass) bass
Off The Map Jams bass
Awakening bass
One Big Mob bass
Higher Ground (stevie Wonder Cover) bass
She Looks To Me bass
Out In L.a. bass
Flea Bass Solo Fix bass
Baby Appeal bass
Battle Ship bass
Lovin And Touchin bass
Body Of Water bass
Dani California (correct) bass
Sikamikahingo bass
I Could Have Lied Live Version bass
Scar Tissue bass
C'mon Girl (perfect) bass


Guitar Tabs









All tabs are property and copyright of their owners. All tabs provided for educational purposes only. Privacy Policy, DMCA