Red Hot Chili Peppers

If You Want Me To Stay (the Real Way!) Bass Tabs



More from Red Hot Chili Peppers

Red Hot Chili Peppers Tabs
Red Hot Chili Peppers Chords
Red Hot Chili Peppers Bass
Red Hot Chili Peppers Lyrics




I Donít Understand Why I Canít Get This Posted, But THIS IS THE
RIGHT WAY TO PLAY IT!!! Not Only Have I Seen Flea Play It This Way
But It Also Works Perfectly If You Play It To The CD!!!

G-------------------------------------------------------------4-3-22-
D-------------------------------2-3-3-3-3-3-3-3-3-5-5-5-5-2-2--------
A-----------------------5-3-3-3--------------------------------------
E-5-5-5-5-5-5-5-4-3-3-3----------------------------------------------

1st Variation
G-----------------------------------------------------------4-3--22-
D-------------------------------2-3-3-3-3-3-3-3-3-2-2-2-2-----------
A-----------------------5-3-3-3---------------------------2----1----
E-5-5-5-5-5-5-5-4-3-3-3---------------------------------------------

2nd Variation
G---------------------------------------------------------4-4-3-322-
D-------------------------------2-3-3-3-3-3-3-3-3-5-5-2-2-----------
A-----------------------5-3-3-3-------------------------------------
E-5-5-5-5-5-5-5-4-3-3-3---------------------------------------------

3rd Variation
G-------------------------------------------------------------------
D-------------------------------------------------------------------
A-----------------------2-3-3-3-------------------------------------
E-5-5-5-5-5-5-5-4-3-3-3---------0-1-1-1-1-1-1-1-1-0-0-0-0-3-3-4-4-5-

Just Repeat These 4 variations till the end of the song and there
you have it, The true Red Hot Chili Peppers version of ďIf You
Want Me To StayĒ Originally done by Sly and The Family Stone.



Get this song at amazon.com      Ebay     Ringtones Ringtones  


Learn to play: Songwriting, Piano, Harmonica, Guitar
More Red Hot Chili Peppers lyrics available at Muzikum

Related Red Hot Chili Peppers Bass Tabs

Fight Like A Brave bass
Blood Sugar Sex Magik bass
Green Heaven bass
Love Rollercoaster bass
I Could Have Lied (live) bass
She's Only 18 (correct) bass
Hump De Bump bass
Otherside ( Correct ) bass
Baby Appeal bass
Funky Monks (4 String Adaption) bass
Hey Bass Tab bass
If bass
Pretty Little Ditty bass
Annie Wants A Baby bass
All Around The World (excently Perfect) bass
Warm Tape bass
Behind The Sun bass
Can't Stop Bass Tab bass
The Greeting Song bass
Flea Video Bass Tab bass


Guitar Tabs









All tabs are property and copyright of their owners. All tabs provided for educational purposes only. Privacy Policy, DMCA