Red Hot Chili Peppers

If Bass Tabs



More from Red Hot Chili Peppers

Red Hot Chili Peppers Tabs
Red Hot Chili Peppers Chords
Red Hot Chili Peppers Bass
Red Hot Chili Peppers Lyrics



Tabbed by: JenRHCP

Try to get the timing correct by listening to the song.

Donít get mixed up with the guitar part.

Played on one string, so itís quite easy.



Intro

G 18--18-16--16-14-16-14ó14-----------|

D ------------------------------------|

A ------------------------------------|

E ------------------------------------|



G 11--11-13--13-14--16-14-14----------|

D ------------------------------------|

A ------------------------------------|

E ------------------------------------|



G 18-19-18--16-18-16--14-16--14--14----------|

D -------------------------------------------|

A -------------------------------------------|

E -------------------------------------------|



G 11--11-13--13-14--16-14-14----------|

D ------------------------------------|

A ------------------------------------|

E ------------------------------------|





Verse

G 18--18-16--16-14-16-14--14----------|

D ------------------------------------|

A ------------------------------------|

E ------------------------------------|



G 11--11-13--13-14--16-14-14----------|

D ------------------------------------|

A ------------------------------------|

E ------------------------------------|



G 18-19-18--16-18-16--14-16--14--14----------|

D -------------------------------------------|

A -------------------------------------------|

E -------------------------------------------|



G 11--11-13--13-14--16-14-14----------|

D ------------------------------------|

A ------------------------------------|

E ------------------------------------|





Bridge Bit

G 13-13-13-13-14-14-15-14-14----------|

D ------------------------------------|

A ------------------------------------|

E ------------------------------------|



G 13-13-13-13-14-14-15-14-14----------|

D ------------------------------------|

A ------------------------------------|

E ------------------------------------|



G 10--10-10-12--12-12-14-14-14-14-14-14-14-------------|

D -----------------------------------------------------|

A -----------------------------------------------------|

E -----------------------------------------------------|



G 10--10-10-12--12-12-14-14-14-14-14-14-14-------------|

D -----------------------------------------------------|

A -----------------------------------------------------|

E -----------------------------------------------------|





Verse

G 18--18-16--16-14-16-14--14----------|

D ------------------------------------|

A ------------------------------------|

E ------------------------------------|



G 11--11-13--13-14--16-14-14----------|

D ------------------------------------|

A ------------------------------------|

E ------------------------------------|



G 18--18-16--16-14-16-14--14----------|

D ------------------------------------|

A ------------------------------------|

E ------------------------------------|



G 11--11-13--13-14--16-14-14----------|

D ------------------------------------|

A ------------------------------------|

E ------------------------------------|



G 18-19-18--16-18-16--14-16--14--14-----------|

D --------------------------------------------|

A --------------------------------------------|

E --------------------------------------------|



G 11--11-13--13-14--16-14-14----------|

D ------------------------------------|

A ------------------------------------|

E ------------------------------------|





Bridge Bit

G 13-13-13-13-14-14-15-14-14----------|

D ------------------------------------|

A ------------------------------------|

E ------------------------------------|



G 13-13-13-13-14-14-15-14-14----------|

D ------------------------------------|

A ------------------------------------|

E ------------------------------------|



G 13-13-13-13-14-14-15-14-14----------|

D ------------------------------------|

A ------------------------------------|

E ------------------------------------|



G 13-13-13-13-14-14-15-14-14----------|

D ------------------------------------|

A ------------------------------------|

E ------------------------------------|



G 10--10-10-12--12-12-14-14-14-14-14-14-14--------------|

D ------------------------------------------------------|

A ------------------------------------------------------|

E ------------------------------------------------------|



G 10--10-10-12--12-12-14-14-14-14-14-14-14--------------|

D ------------------------------------------------------|

A ------------------------------------------------------|

E ------------------------------------------------------|



G 10-10-9ó10-10-9ó10-10-9-7-----------|

D ------------------------------------|

A ------------------------------------|

E ------------------------------------|



G ------- 10-------7--------------------|

D -------------------------------------|

A -------------------------------------|

E -------------------------------------|



Till end.



Have Fun! Any corrections, email webmaster at tabs-database.com.com.Added by tabs-database.com and our distinguished partners
Get this song at amazon.com      Ebay     Ringtones Ringtones  


Learn to play: Songwriting, Piano, Harmonica, Guitar
More Red Hot Chili Peppers lyrics available at Muzikum

Related Red Hot Chili Peppers Tabs

Teatro Jam tabs
Funny Face Bass tabs
Stadium Arcadium tabs
Sex Rap tabs
Bunker Hill tabs
Melancholy Mechanics tabs
Espacially In Michigan tabs
Melloship tabs
Around The World4 tabs
Quixoticelixir tabs
Rivers Of Avalon (2) tabs
Shallow Be Thy Game tabs
Tell Me Baby Bass tabs
Why Dont You Love Me tabs
Otherside Giutar Tab tabs
Fire tabs
Baby Appeal Bass tabs
Don t forget me tabs
Teenager In Love Bass tabs
Hyde Park Solo tabs


Guitar Tabs









All tabs are property and copyright of their owners. All tabs provided for educational purposes only. Privacy Policy, DMCA