Red Hot Chili Peppers

Hyde Park Bass Solo #2 Bass Tabs



More from Red Hot Chili Peppers

Red Hot Chili Peppers Tabs
Red Hot Chili Peppers Chords
Red Hot Chili Peppers Bass
Red Hot Chili Peppers Lyrics




This is Played after By The Way
|---------17-14-|-------------------------------|
|---------------|-17-15-------15----17-17-17-17-|
|---------------|-------17-------17-------------|
|---------------|-------------------------------|

|------------------------------------------|
|-17s19s17S15-17-15-----15----15----15-17--|
|-------------------15-----17----17--------|
|------------------------------------------|

|-------------------------------------------------|
|-14s12----------12-13s14-14-14S17-17-17-17-14-12-|
|-------15-12-15----------------------------------|
|-------------------------------------------------|

|------------------------------------------|
|-14-12-15-12------------------------------|
|-------------15-14-15-14---15-14---15-14--|
|------------------------------------------|

|----------------------------------------------|
|----------------------------------------------|
|--555----111---------333----------------------| x4
|--------------111-----------------------------|

|----------------------------------------------|
|----------------------------------------------|
|---555--------888-----------------------------|
|--------66----------888-----------------------|


|----------------------------------------------|
|----------------------------------------------|
|---555--------8808----------------------------| x2
|--------66----------888-----------------------|

|----------------------------------------------|
|----------------------------------------------|
|---555--------888--------------5--------------|
|--------66----------888-----------------------|



Get this song at amazon.com      Ebay     Ringtones Ringtones  


Learn to play: Songwriting, Piano, Harmonica, Guitar
More Red Hot Chili Peppers lyrics available at Muzikum

Related Red Hot Chili Peppers Bass Tabs

FelaĊ½s Cock bass
Spell Correctly bass
Under The Bridge Guitar Intro On Bass bass
123456 bass
Black Cross bass
Bass Solo bass
Save The Population bass
Flea: Bass Solo 2 bass
Higher Ground (stevie Wonder Cover) bass
Factory Of Faith bass
Wet Sand bass
Over Funk bass
Shes Only 18 bass
Naked In The Rain bass
Tell Me Baby (live) bass
Arpeggiating bass
The Adventures Of Raindance Maggie bass
Funny Face bass
Death Of A Martian bass
Cmon Girl bass


Guitar Tabs









All tabs are property and copyright of their owners. All tabs provided for educational purposes only. Privacy Policy, DMCA