Red Hot Chili Peppers

Hump De Bump Bass Bass Tabs



More from Red Hot Chili Peppers

Red Hot Chili Peppers Tabs
Red Hot Chili Peppers Chords
Red Hot Chili Peppers Bass
Red Hot Chili Peppers Lyrics




i tabbed this with my popped G string bass. so only 3 strings are
played but i believe it is more than adequately accurate.

intro
D 5---5---5---5---5---5-|
A ---------------------- |
E -----------------------|
(it's better to take the intro rhythm out from the bar. just count
1-2-3-4 for 5 times and on 6th 1-2)

verse

| 7--7----7--7-------|
| 5--5----5--5---8p5-|
| -------------------|

| 7--7----7--7-----x---|
| 5--5----5--7----x-8p5|
| -------------5h8-----|

'hump de bump' verse

| 7--7----7--7-9-10| | 7--7----7--7-9-10-9|
| 5--5----5--5-7-8-| | 5--5----5--5-7-8--7|
| ------------------| | --------------------|

chorus

| --12-10--10------------| | ---8-7--7----------| | --7-5-----5-3---| | -------------------|
| -------12---12-10--8-10| | ------10-10-8--5-8| | -----7-5-----5-3| | ------58-------710|
| 10---------------------| | 6------------------| | 5--------3------| | 6-6-68--8-8-810---|
(for easier rhythm perception i guess)

| --12-10--10------------| | ---8-7--7----------| | --7-5-----5-3---| | ----------12-10 ---------|
| -------12---12-10--8-10| | ------10-10-8--5-8| | -----7-5-----5-3| | ------58-------12-11-10-|
| 10---------------------| | 6------------------| | 5--------3------| | 6-6-68--8--------------13|

before the 'hump de bump' after the 8 bars of drum solo

| -------------------------------|
| -------------------------------|
| 8-8-8-s/12-8--10-8-8-8-8-8--10| right in the end of solo
| 8-8-8888-10---|

thanks for reading my very first tab.



Get this song at amazon.com      Ebay     Ringtones Ringtones  


Learn to play: Songwriting, Piano, Harmonica, Guitar
More Red Hot Chili Peppers lyrics available at Muzikum

Related Red Hot Chili Peppers Bass Tabs

Californication (easy) bass
Green Heaven bass
Taste The Pain bass
Suck My Kiss (in Detail) bass
Bunker Hill bass
Mommy Where's Daddy bass
Blues For Meister bass
Subterranean Homesick Blues bass
Strom In A Teacup bass
Cant Stop bass
Desecration Smile bass
Tearjerker bass
Brandy bass
Battleship bass
Universally Speaking bass
Off The Map Pea bass
Shes Only 18 bass
Skinny Sweety Man bass
Search And Destroy bass
Hump De Bump Bass bass


Guitar Tabs









All tabs are property and copyright of their owners. All tabs provided for educational purposes only. Privacy Policy, DMCA