Red Hot Chili Peppers

Hump De Bump (100% Correct) Bass Tabs



More from Red Hot Chili Peppers

Red Hot Chili Peppers Tabs
Red Hot Chili Peppers Chords
Red Hot Chili Peppers Bass
Red Hot Chili Peppers Lyrics




Intro - Rest

Pre Chorus 1
0:05
3x
G|------------------------------------|
D|------------------------------------|
A|-55--55234--55-55432----------------|
E|------------------------------------|

Chorus 1
0:30
2x
G|------------------------------------|
D|------------------------------------|
A|-55--55234--55-55432----------------|
E|------------------------------------|

Verse 1
0:48
x2
G|--75--------------------------------31----53-----|
D|----753------86--------75----53-------31----53---|
A|-5-----535-----864-------75----53--1-----3-------|
E|------------6-----646-5-----3--------------------|

Pre Chorus 2
1:05
3x
G|------------------------------------|
D|------------------------------------|
A|-55--55234--55-55432----------------|
E|------------------------------------|

Chorus 2
1:30
2x
G|------------------------------------|
D|------------------------------------|
A|-55--55234--55-55432----------------|
E|------------------------------------|

Verse 1
1:48
x2
G|--75--------------------------------31----53-----|
D|----753------86--------75----53-------31----53---|
A|-5-----535-----864-------75----53--1-----3-------|
E|------------6-----646-5-----3--------------------|

Cowbell Solo - Rest
2:05


Chorus 3
2:40
2x
G|------------------------------------|
D|------------------------------------|
A|-55--55234--55-55432----------------|
E|------------------------------------|


Chorus 3
2:55
4x
G|------------------------------------|
D|------------------------------------|
A|-55--55234--55-55432----------------|
E|------------------------------------|



Get this song at amazon.com      Ebay     Ringtones Ringtones  


Learn to play: Songwriting, Piano, Harmonica, Guitar
More Red Hot Chili Peppers lyrics available at Muzikum

Related Red Hot Chili Peppers Bass Tabs

Californication (100% Correct!) bass
Walkabout bass
Green Heaven bass
I Could Have Lied Live Version bass
Flea: Bass Solo 2 bass
Dont Forget Me bass
Simple Nice bass
Easiliy bass
F U bass
Castle Made Of Sand bass
Under The Bridge Intro On Bass bass
Catholic School Girls Rule bass
Under The Bridge bass
What It Is bass
Fly bass
Tearjerker bass
Hey Bass Tab bass
Leverage Of Space bass
Quixotic Elixer bass
American Ghost Dance bass


Guitar Tabs









All tabs are property and copyright of their owners. All tabs provided for educational purposes only. Privacy Policy, DMCA