Red Hot Chili Peppers

Higher Ground (complete) Bass Tabs



More from Red Hot Chili Peppers

Red Hot Chili Peppers Tabs
Red Hot Chili Peppers Chords
Red Hot Chili Peppers Bass
Red Hot Chili Peppers Lyrics




Song: Higher Ground (cover)
Artist: Red Hot Chili Peppers
Album: Mother's Milk
Tabbed by: esteban herco

Great song!...


Key:
s=slap
p=pop

Main Riff:

G|--------------------------------------|
D|-----2------5-----7-----2------5---7--|
A|--------------------------------------|
E|-0-0---03-3---5-5---0-0---03-3---5----|
> s s p ss s p s s p s s p ss s p s p


Riff #1:

G|-------------------------------------|
D|-----4------7-----9-----4------7---9-|
A|-------------------------------------|
E|-2-2---25-5---7-7---2-2---25-5---7---|
> s s p ss s p s s p s s p ss s p s p

G|-----------------------7-----5-----4-----3-|
D|-----7------7----7-------------------------|
A|-------------------5-5---3-3---2-2---1-1---|
E|-5-5---55-5---55---------------------------|
> s s p ss s p ss p s s p s s p s s p s s p


Riff #2(chorus):

G|-------------------------------| x3
D|-------------------------------|
A|---------------7-5h7-5h7-5h7-5-|
E|-5--5--5-3h5-3-----------------|

G|-------------------------------|
D|-------------------------------|
A|-------------222222222222------|
E|-222222222222------------------|




Play:

>Main Riff x6......for the Intro

>Main Riff x4.....
>Riff #1...........for the Verse

>Main Riff x2......for each interlude

>Riff #2...........for the chorus




Any doubts or corrections please let me know...



Get this song at amazon.com      Ebay     Ringtones Ringtones  


Learn to play: Songwriting, Piano, Harmonica, Guitar
More Red Hot Chili Peppers lyrics available at Muzikum

Related Red Hot Chili Peppers Bass Tabs

I Like Dirt bass
Californication (with Bass N Guitar On Bass) bass
Black Cross bass
Pea (live) bass
Naked In The Rain bass
Hey Bass Tab bass
Flea:funk Song bass
Goodbye Hooray bass
Mellowship Slinky In Bminor bass
123456 bass
Soul To Sqeeze (improved) bass
Fu bass
Castle Made Of Sand bass
Higher Ground bass
Love Rollercoaster bass
Mellowship Slinky bass
C'mon Girl bass
Time bass
Ill Be Your Domino bass
Dani California (100% Correct) bass


Guitar Tabs









All tabs are property and copyright of their owners. All tabs provided for educational purposes only. Privacy Policy, DMCA