Red Hot Chili Peppers

Hey Bass Tabs



More from Red Hot Chili Peppers

Red Hot Chili Peppers Tabs
Red Hot Chili Peppers Chords
Red Hot Chili Peppers Bass
Red Hot Chili Peppers Lyrics



Hey





Red Hot Chili Peppers

Flea - Bass







H E E E E H E E E E

G||--12-----------12-----12--|--L-----------12-----12--|

D||--10-----------13---------|--------------13---------|

A||----------------------13--|--L------------------11--|

E||--------------------------|-------------------------|





H E E E E H E E E E H E E E E

--L-----------12-----12--|--L-----------12-----12--|---L-----------12-----12--|

-------------------------|---------------------10--|---L-----------13---------|

--L-----------10-----11--|--L-----------13---------|----------------------13--|

-------------------------|-------------------------|--------------------------|





H E E E E H E E E E

--L-----------12-----12--|--L-----------13-----12--|

--------------13---------|-------------------------|

--L------------------11--|--L-----------11-----11--|

-------------------------|-------------------------|





E E E E E E E E H E E E E

-----13-----12-----12-----12--|--L-----------12-----12--|

--------------------------10--|--L-----------13---------|

-----11-----11-----13---------|---------------------13--|

------------------------------|-------------------------|





H E E E E H E E E E H E E E E

--L-----------12-----12--|--L-----------12-----12--|--L-----------12-----12--|

--------------13---------|-------------------------|---------------------10--|

--L------------------11--|--L-----------10-----11--|--L-----------13---------|

-------------------------|-------------------------|-------------------------|





H E E E E H E E E E H E E E E

---L-----------12-----12--|--L-----------12-----12--|--L-----------13-----12--|

---L-----------13---------|--------------13---------|-------------------------|

----------------------13--|--L------------------11--|--L-----------11-----11--|

--------------------------|-------------------------|-------------------------|





E E E E E E E E H E E E E

-----13-----12-----12-----12--|--L-----------12-----12--|

--------------------------10--|--L-----------13---------|

-----11-----11-----13---------|---------------------13--|

------------------------------|-------------------------|





H E E E E H E E E E H E E E E

--L-----------12-----12--|--L-----------12-----12--|--L-----------12-----12--|

--------------13---------|-------------------------|---------------------10--|

--L------------------11--|--L-----------10-----11--|--L-----------13---------|

-------------------------|-------------------------|-------------------------|





H E E E E H E E E E H E E E E

---L-----------12-----12--|--L-----------12-----12--|--L-----------13-----12--|

---L-----------13---------|--------------13---------|-------------------------|

----------------------13--|--L------------------11--|--L-----------11-----11--|

--------------------------|-------------------------|-------------------------|





E E E E E E E E H E E E E

-----13-----12-----12-----12--|--L-----------12-----12--|

--------------------------10--|--L-----------13---------|

-----11-----11-----13---------|---------------------13--|

------------------------------|-------------------------|





H E E E E H E E E E H E E E E

--L-----------12-----12--|--L-----------12-----12--|--L-----------12-----12--|

--------------13---------|-------------------------|---------------------10--|

--L------------------11--|--L-----------10-----11--|--L-----------13---------|

-------------------------|-------------------------|-------------------------|





H E E E E H E E E E H E E E E

---L-----------12-----12--|--L-----------12-----12--|--L-----------13-----12--|

---L-----------13---------|--------------13---------|-------------------------|

----------------------13--|--L------------------11--|--L-----------11-----11--|

--------------------------|-------------------------|-------------------------|





E E E E E E E E H E E E E

-----13-----12-----12-----12--|--L-----------12-----12--|

--------------------------10--|--L-----------13---------|

-----11-----11-----13---------|---------------------13--|

------------------------------|-------------------------|





H E E E E H E E E E H E E E E

--L-----------12-----12--|--L-----------12-----12--|--L-----------12-----12--|

--------------13---------|-------------------------|---------------------10--|

--L------------------11--|--L-----------10-----11--|--L-----------13---------|

-------------------------|-------------------------|-------------------------|





H E E E E H E E E E H E E E E

---L-----------12-----12--|--L-----------12-----12--|--L-----------13-----12--|

---L-----------13---------|--------------13---------|-------------------------|

----------------------13--|--L------------------11--|--L-----------11-----11--|

--------------------------|-------------------------|-------------------------|





E E E E E E E E H E Q E H E Q E

-----13-----12-----12--12-----|--L--------------------|-----------------------|

-----------------------10-----|--L--------------------|-----------------------|

-----11-----11-----13---------|-----------------------|--------------8----10--|

------------------------------|--8-----------11----6--|--L--------------------|





H E Q E H E Q E H E Q E

----------------------|----------------------|-----------------------|

----------------------|----------------------|-----------------------|

--L-----------8----6--|--L-----------6-------|-----------------------|

----------------------|-------------------8--|--L-----------11----6--|





H E Q E H E Q E H E Q E

-----------------------|----------------------|----------------------|

-----------------------|----------------------|----------------------|

--------------8----10--|--L-----------8----6--|--L-----------6-------|

--L--------------------|----------------------|-------------------8--|





H E Q E H E Q E H E Q E

-----------------------|-----------------------|----------------------|

-----------------------|-----------------------|----------------------|

-----------------------|--------------8----10--|--L-----------8----6--|

--L-----------11----6--|--L--------------------|----------------------|





H E Q E H E Q E H E Q E

----------------------|-----------------------|-----------------------|

----------------------|-----------------------|-----------------------|

--L-----------6-------|-----------------------|--------------8----10--|

-------------------8--|--L-----------11----6--|--L--------------------|





H E Q E H E Q E H E E E E

----------------------|----------------------|--12-----------12-----12--|

----------------------|----------------------|--10-----------13---------|

--L-----------8----6--|--L-----------6----6--|----------------------13--|

----------------------|----------------------|--------------------------|





H E E E E H E E E E H E E E E

--L-----------12-----12--|--L-----------12-----12--|--L-----------12-----12--|

--------------13---------|-------------------------|---------------------10--|

--L------------------11--|--L-----------10-----11--|--L-----------13---------|

-------------------------|-------------------------|-------------------------|





H E E E E H E E E E H E E E E

---L-----------12-----12--|--L-----------12-----12--|--L-----------13-----12--|

---L-----------13---------|--------------13---------|-------------------------|

----------------------13--|--L------------------11--|--L-----------11-----11--|

--------------------------|-------------------------|-------------------------|





E E E E E E E E H E E E E

-----13-----12-----12-----12--|---L-----------12-----12--|

--------------------------10--|---L-----------13---------|

-----11-----11-----13---------|----------------------13--|

------------------------------|--------------------------|





H E E E E H E E E E H E E E E

--L-----------12-----12--|--L-----------12-----12--|--L-----------12-----12--|

--------------13---------|-------------------------|---------------------10--|

--L------------------11--|--L-----------10-----11--|--L-----------13---------|

-------------------------|-------------------------|-------------------------|





H E E E E H E E E E H E E E E

---L-----------12-----12--|--L-----------12-----12--|--L-----------13-----12--|

---L-----------13---------|--------------13---------|-------------------------|

----------------------13--|--L------------------11--|--L-----------11-----11--|

--------------------------|-------------------------|-------------------------|





E E E E E E E E H E E E E

-----13-----12-----12-----12--|--L-----------12-----12--|

--------------------------10--|--L-----------13---------|

-----11-----11-----13---------|---------------------13--|

------------------------------|-------------------------|





H E E E E H E E E E H E E E E

--L-----------12-----12--|--L-----------12-----12--|--L-----------12-----12--|

--------------13---------|-------------------------|---------------------10--|

--L------------------11--|--L-----------10-----11--|--L-----------13---------|

-------------------------|-------------------------|-------------------------|





H E E E E H E E E E H E E E E

---L-----------12-----12--|--L-----------12-----12--|--L-----------13-----12--|

---L-----------13---------|--------------13---------|-------------------------|

----------------------13--|--L------------------11--|--L-----------11-----11--|

--------------------------|-------------------------|-------------------------|





E E E E E E E E H E E E E

-----13-----12-----12-----12--|--L-----------12-----12--|

--------------------------10--|--L-----------13---------|

-----11-----11-----13---------|---------------------13--|

------------------------------|-------------------------|





H E E E E H E E E E H E E E E

--L-----------12-----12--|--L-----------12-----12--|--L-----------12-----12--|

--------------13---------|-------------------------|---------------------10--|

--L------------------11--|--L-----------10-----11--|--L-----------13---------|

-------------------------|-------------------------|-------------------------|





H E E E E H E E E E H E E E E

---L-----------12-----12--|--L-----------12-----12--|--L-----------13-----12--|

---L-----------13---------|--------------13---------|-------------------------|

----------------------13--|--L------------------11--|--L-----------11-----11--|

--------------------------|-------------------------|-------------------------|





E E E E E E E E H E Q E H E Q E

-----13-----12-----12--12-----|--L--------------------|-----------------------|

-----------------------10-----|--L--------------------|-----------------------|

-----11-----11-----13---------|-----------------------|--------------8----10--|

------------------------------|--8-----------11----6--|--L--------------------|





H E Q E H E Q E H E Q E

----------------------|----------------------|-----------------------|

----------------------|----------------------|-----------------------|

--L-----------8----6--|--L-----------6-------|-----------------------|

----------------------|-------------------8--|--L-----------11----6--|





H E Q E H E Q E H E Q E

-----------------------|----------------------|----------------------|

-----------------------|----------------------|----------------------|

--------------8----10--|--L-----------8----6--|--L-----------6-------|

--L--------------------|----------------------|-------------------8--|





H E Q E H E Q E H E Q E

-----------------------|-----------------------|----------------------|

-----------------------|-----------------------|----------------------|

-----------------------|--------------8----10--|--L-----------8----6--|

--L-----------11----6--|--L--------------------|----------------------|





H E Q E H E Q E H E Q E

----------------------|-----------------------|-----------------------|

----------------------|-----------------------|-----------------------|

--L-----------6-------|-----------------------|--------------8----10--|

-------------------8--|--L-----------11----6--|--L--------------------|





H E Q E H E Q E H E Q E

----------------------|----------------------|-----------------------|

----------------------|----------------------|-----------------------|

--L-----------8----6--|--L-----------6-------|-----------------------|

----------------------|-------------------8--|--L-----------11----6--|





H E Q E H E Q E H E Q E

-----------------------|----------------------|----------------------|

-----------------------|----------------------|----------------------|

--------------8----10--|--L-----------8----6--|--L-----------6-------|

--L--------------------|----------------------|-------------------8--|





H E Q E H E Q E H E Q E

-----------------------|-----------------------|----------------------|

-----------------------|-----------------------|----------------------|

-----------------------|--------------8----10--|--L-----------8----6--|

--L-----------11----6--|--L--------------------|----------------------|





E E E E E E E E Q E E Q Q Q E Q E Q

--------------------------|-----------------------|-----------------------|

--------------------------|-----------------------|-----------------------|

--L--6--6--6--6--6--6--6--|--8-------8--8---------|--8----8--8----8--8----|

--------------------------|-----------------------|-----------------------|





Q E E Q Q Q E Q E Q Q E E Q Q

-----------------------|-----------------------|-----------------------|

-----------------------|-----------------------|-----------------------|

--6-------6--6---------|--6----6--6----6--6----|-----------------------|

-----------------------|-----------------------|--9-------9--9---------|





Q E Q E Q Q E E Q Q Q E Q E Q

-----------------------|-----------------------|-----------------------|

-----------------------|-----------------------|-----------------------|

-----------------------|-----------------------|-----------------------|

--9----9--9----9--9----|--4-------4--4---------|--4----4--4----4--4----|





Q E E Q Q Q E Q E Q Q E E Q Q

-----------------------|-----------------------|-----------------------|

-----------------------|-----------------------|-----------------------|

--8-------8--8---------|--8----8--8----8--8----|--6-------6--6---------|

-----------------------|-----------------------|-----------------------|





Q E Q E Q Q E E Q Q Q E Q E Q

-----------------------|-----------------------|-----------------------|

-----------------------|-----------------------|-----------------------|

--6----6--6----6--6----|-----------------------|-----------------------|

-----------------------|--9-------9--9---------|--9----9--9----9--9----|





Q E E Q Q Q E Q E Q Q E E Q Q

-----------------------|-----------------------|-----------------------|

-----------------------|-----------------------|-----------------------|

-----------------------|-----------------------|-----------------------|

--4-------4--4---------|--4----4--4----4--4----|--6-------6--6---------|





E E E E E E E E H E E E E H E E E E

--------------------------|--12-----------12-----12--|--L-----------12-----12--|

--------------------------|--10-----------13---------|--------------13---------|

--------------------------|----------------------13--|--L------------------11--|

--6--6--6--6--6--6--6--6--|--------------------------|-------------------------|





H E E E E H E E E E H E E E E

--L-----------12-----12--|--L-----------12-----12--|---L-----------12-----12--|

-------------------------|---------------------10--|---L-----------13---------|

--L-----------10-----11--|--L-----------13---------|----------------------13--|

-------------------------|-------------------------|--------------------------|





H E E E E H E E E E

--L-----------12-----12--|--L-----------13-----12--|

--------------13---------|-------------------------|

--L------------------11--|--L-----------11-----11--|

-------------------------|-------------------------|





E E E E E E E E H E E E E

-----13-----12-----12-----12--|---L-----------12-----12--|

--------------------------10--|---L-----------13---------|

-----11-----11-----13---------|----------------------13--|

------------------------------|--------------------------|





H E E E E H E E E E H E E E E

--L-----------12-----12--|--L-----------12-----12--|--L-----------12-----12--|

--------------13---------|-------------------------|---------------------10--|

--L------------------11--|--L-----------10-----11--|--L-----------13---------|

-------------------------|-------------------------|-------------------------|





H E E E E H E E E E H E E E E

---L-----------12-----12--|--L-----------12-----12--|--L-----------13-----12--|

---L-----------13---------|--------------13---------|-------------------------|

----------------------13--|--L------------------11--|--L-----------11-----11--|

--------------------------|-------------------------|-------------------------|





E E E E E E E E H E E E E

-----13-----12-----12-----12--|---L-----------12-----12--|

--------------------------10--|---L-----------13---------|

-----11-----11-----13---------|----------------------13--|

------------------------------|--------------------------|





H E E E E H E E E E H E E E E

--L-----------12-----12--|--L-----------12-----12--|--L-----------12-----12--|

--------------13---------|-------------------------|---------------------10--|

--L------------------11--|--L-----------10-----11--|--L-----------13---------|

-------------------------|-------------------------|-------------------------|





H E E E E H E E E E H E E E E

---L-----------12-----12--|--L-----------12-----12--|--L-----------13-----12--|

---L-----------13---------|--------------13---------|-------------------------|

----------------------13--|--L------------------11--|--L-----------11-----11--|

--------------------------|-------------------------|-------------------------|





E E E E E E E E H E E E E

-----13-----12-----12-----12--|---L-----------12-----12--|

--------------------------10--|---L-----------13---------|

-----11-----11-----13---------|----------------------13--|

------------------------------|--------------------------|





H E E E E H E E E E H E E E E

--L-----------12-----12--|--L-----------12-----12--|--L-----------12-----12--|

--------------13---------|-------------------------|---------------------10--|

--L------------------11--|--L-----------10-----11--|--L-----------13---------|

-------------------------|-------------------------|-------------------------|





H E E E E H E E E E H E E E E

---L-----------12-----12--|--L-----------12-----12--|--L-----------13-----12--|

---L-----------13---------|--------------13---------|-------------------------|

----------------------13--|--L------------------11--|--L-----------11-----11--|

--------------------------|-------------------------|-------------------------|





E E E E E E E E H E E E E

-----13-----12-----12-----12--|---L-----------12-----12--|

--------------------------10--|---L-----------13---------|

-----11-----11-----13---------|----------------------13--|

------------------------------|--------------------------|





H E E E E H E E E E H E E E E

--L-----------12-----12--|--L-----------12-----12--|--L-----------12-----12--|

--------------13---------|-------------------------|---------------------10--|

--L------------------11--|--L-----------10-----11--|--L-----------13---------|

-------------------------|-------------------------|-------------------------|





H E E E E H E E E E H E E E E

---L-----------12-----12--|--L-----------12-----12--|--L-----------13-----12--|

---L-----------13---------|--------------13---------|-------------------------|

----------------------13--|--L------------------11--|--L-----------11-----11--|

--------------------------|-------------------------|-------------------------|





E E E E E E E E W

-----13-----12-----12-----12--|--L----------------||

--------------------------10--|--L----------------||

-----11-----11-----13---------|-------------------||

------------------------------|-------------------||









Duration Legend

---------------

W - whole

H - half

Q - quarter

E - 8th

S - 16th

T - 32nd

X - 64th

. - note dotted

|-n-| - n-tuplets





Tablature Legend

----------------

L - tied note

x - dead note

g - grace note

(n) - ghost note

> - accentuded note

NH - natural harmonic

AH - artificial harmonic

TH - tapped harmonic

SH - semi harmonic

PH - pitch harmonic

h - hammer on

p - pull off

b - bend

br - bendRelease

pb - preBend

pbr - preBendRelease

brb - bendReleaseBend


/ - tremolo bar dip


- tremolo bar dive

-/n - tremolo bar Release up

/n\ - tremolo bar inverted dip

/n - tremolo bar return

-
- tremolo bar Release down

S - shift slide

s - legato slide

/ - slide into from below or out of upwards

\ - slide into from above or out of downwards

~ - vibrato

W - wide vibrato

tr - trill

TP - tremolo picking

T - tapping

S - slap

P - pop

Added by tabs-database.com and our distinguished partners
Get this song at amazon.com      Ebay     Ringtones Ringtones  


Learn to play: Songwriting, Piano, Harmonica, Guitar
More Red Hot Chili Peppers lyrics available at Muzikum

Related Red Hot Chili Peppers Tabs

Fortune Faded tabs
Dani California tabs
Venice Queen (3) tabs
Battle Ship tabs
Easy Higher Ground tabs
Tell Me Baby Perfect tabs
F U tabs
Califorication tabs
The Coffee Shop tabs
The Uplift Mofo Party Plan Bass tabs
Brandy tabs
No Chump Love Sucker tabs
Green Heaven tabs
Look Around tabs
Venice Queen (5) tabs
Porcelain Solo tabs
Catholic School Girls tabs
I Could Die For You (3) tabs
Death Of A Martian tabs
Storm In A Teacup tabs


Guitar Tabs









All tabs are property and copyright of their owners. All tabs provided for educational purposes only. Privacy Policy, DMCA