Red Hot Chili Peppers

Hey Bass Tab Bass Tabs



More from Red Hot Chili Peppers

Red Hot Chili Peppers Tabs
Red Hot Chili Peppers Chords
Red Hot Chili Peppers Bass
Red Hot Chili Peppers Lyrics




Song: Hey
Artist: Red Hot Chili Peppers
Album: Stadium Arcadium

Tabbed By: Marcos Prieto (marcrow_ps@yahoo.es)

This is a beautiful song from the Red Hot and a very beautiful
bass from "The Master" Flea.
Enjoy it.

Verse:

Cm Bb Ab
+ + + + + + + + + + + + + + + +
G||12--------12----|12--------12----|12--------12----|12--------12----|
D|.10--------13----|----------13----|----------13----|----------------|
A|.----------------|13--------------|11--------------|11--------13----|
E||----------------|----------------|----------------|----------------|
*_____.1.______ *______.2._____
Cm Bb Ab \ \
+ + + + + + + + + + + + + + + + + + + +
G|12--------12----|12--------12----|12--------12----|12--12--12--12--|| |12--12--12--1212|
D|10--------13----|----------13----|----------13----|----13----------.| |----13----------|
A|----------------|13--------------|11--------------|11------11--13--.| |11------11--1313|
E|----------------|----------------|----------------|----------------|| |----------------|

* Change the ending .1. to .2. the last verse after the chorus.

Chorus:

Cm Bb F Eb
+ + + + + + + + + + + + + + + +
G||8---------7-----|10--------8-----|12--------12----|12--------12----||
D|.----------------|----------------|----------------|----------------.|
A|.----------6-----|----------6-----|----------------|----------------.|
E||8---------------|6---------------|13--------13----|11--------11----||

_________________________ Chorus End 1 __________________________
/ \
+ + + + + + + + + + + + + + + +
G|8---------7-----|10--------8-----|12--------12----|12--------------|
D|----------------|----------------|----------------|----------------|
A|----------6-----|----------6-----|----------------|----------------|
E|8---------------|6---------------|13--------13----|11--------------|

_________________________________ Chorus End 2 __________________________________
/ \
+ + + + + + + + + + + + + + + +
G|8---------7-----|10--------8-----|12--------12----|12------------------------------|
D|----------------|----------------|----------------|--------------------------------|
A|----------6-----|----------6-----|----------------|--------------------------------|
E|8---------------|6---------------|13--------13----|11--11--11--11--11--11--11--11--|

Bridge 2:

F Eb
+ + + + + + + + + + + + + + + +
G|----10-------10-|----10----------|----------------|----------------|
D|----------------|------------10--|----------------|--8-------------|
A|8-----8-8-----8-|8-8-----------8-|6-----6-6-6---6-|6-------6---6-6-|
E|----------------|----------------|----------------|----------------|

Db Ab Bb
+ + + + + + + + + + + + + + + +
G|----------------|----------------|----------------|----------------|
D|----------------|----------------|----------------|----------------|
A|4-----4-4-4---4-|4-4-4---4---4---|----------------|----------------|
E|----------------|----------------|4-----4-4---4---|--6-6-6-6-6-6---|

F Eb
+ + + + + + + + + + + + + + + +
G|----10------10--|----10----10-----|----------------|----------------|
D|----------------|--10--------10---|----------------|----------------|
A|8-----8-8-----8-|8-------8--------|6-----6-6-6---6-|6--6---6----6-6-|
E|----------------|-----------------|----------------|----------------|

Db Ab
+ + + + + + + + + + + + + + + +
G|------------6---|----------------|----------------|----------------|
D|----------------|----------------|----------------|----------------|
A|4-----4-4-4---4-|4-4-----4---4-4-|----------------|----------------|
E|----------------|----------------|4-----4-4-----4-|4-4-----4---4---|

Bb
+ + + + + + + +
G|----------------|----------------|
D|----------------|----------------|
A|----------------|----------------|
E|6-----6-6-----6-|6-------6---x6--|

Song estructure:

Verse (x5)
Chorus (x3) + Chorus End 1.
Verse (x4)
Chorus (x5) + Chorus End 2.
Bridge.
Verse (till end) +

Cm
G|12~-------------|
D|10~-------------|
A|----------------|
E|----------------|

NOTE: Caution with the Bb chord from the Chorus, dont break your
fingers ;)
__ _ __ __ _____ _____ _____
/ | / | / | / `\ / ___/ / __ / ( __/
/ |/ | / /|| / /) / // / / // \ \
/ /| /|| / /^|| / /|| //___ / / // ___) )
/ / | / || / / || / / || / / / ^^/ / /
^^^^^^^^^^^^^^^^^^^^^^^^^^^^^^^^^^^^^^^^^^^^^^^^^



Get this song at amazon.com      Ebay     Ringtones Ringtones  


Learn to play: Songwriting, Piano, Harmonica, Guitar
More Red Hot Chili Peppers lyrics available at Muzikum

Related Red Hot Chili Peppers Bass Tabs

Blood Sugar Sex Magik (whole Album) bass
Under The Bridge "gutar Start" bass
Hyde Park: Bass Solo #1 bass
The Greeting Song bass
If You Want Me To Stay bass
Fight Like A Brave bass
Aeroplane bass
Easily With Triads bass
If bass
Save The Population bass
Sir Psycho Sexy bass
Castle Made Of Sand bass
Storm In A Teacup bass
Mellowship Slinky In Bminor bass
Dani California (perfect) bass
Punk Rock Classic bass
The Song That Made Us What We Are Today bass
Throw Away Your Television bass
Soul To Squeeze (complete) bass
Higher Ground (stevie Wonder Cover) bass


Guitar Tabs









All tabs are property and copyright of their owners. All tabs provided for educational purposes only. Privacy Policy, DMCA