Red Hot Chili Peppers

Havana Affair Bass Tabs



More from Red Hot Chili Peppers

Red Hot Chili Peppers Tabs
Red Hot Chili Peppers Chords
Red Hot Chili Peppers Bass
Red Hot Chili Peppers Lyrics




Artist: The Red Hot Chili Peppers
Song: Havana Affair

Intro
G|----------------|----------------|----------------|----------------|
D|----------------|----7-----------|----------------|----7-----------|
A|----------------|5---------------|----------------|5-----5---------|
E|7---------------|--------5-------|7------------7--|--------5-------|

Verse #1 [00:07]
G|----------------|----------------|----------------|----------------|
D|----------------|----------------|----------------|----------------|
A|2----2--4--5----|-------5--4--2--|-----------2--4-|----------------|
E|----------------|2---------------|5-------5-------|2-------2-2-2-5-|
"PT Boat..."

G|----------------|----------------|----------------|----------------|
D|----------------|----------------|----------------|----------------|
A|2----2--4--5----|-----5--7--5--2-|----------------|----------------|
E|----------------|2---------------|5-------5---3---|2--------2------|

Chorus [00:20]
G|----------------|----------------|----------------|----------------|
D|----------------|----------------|----5-7--5------|----------------|
A|----------------|----------------|--5--------5----|----------------|
E|3------3--------|2-------2-------|3------------3--|2--------2------|
"Baby, baby..."

G|4-------4-------|----------------|4-------4-------|-----7----------|
D|----------------|5-------4-------|----------------|5---------4-----|
A|----------------|----------------|----------------|----------------|
E|----------------|----------------|----------------|----------------|

Verse #2 [00:33]
G|----------------|----------------|----------------|----------------|
D|----------------|----------------|----------------|----------------|
A|2----2--4--5----|-------5--4--2--|-----------2----|----------------|
E|----------------|2---------------|5-------5-----5-|2-------2-2-2-5-|
"Sent to spy..."

G|----------------|----------------|----------------|----------------|
D|----------------|----------------|----------------|----------------|
A|2----2--4--2----|-----5--7--5--2-|----------------|----------------|
E|----------------|2---------------|5-------5---3---|2-------2-------|

Chorus [00:46]
G|----------------|----------------|----------------|----------------|
D|----------------|----------------|----5/7--5------|----------------|
A|----------------|----------------|--5--------5----|----------------|
E|3------3--------|2-------2-------|3------------3--|2--------2------|
"Baby, baby..."

G|4-------4-------|-----7----------|----11---11-----|-----7----------|
D|----------------|5---------4-----|9------------9--|5---------4-----|
A|----------------|----------------|----------------|----------------|
E|----------------|----------------|----------------|----------------|

G|----------------|----------------|----------------|----------------|
D|----------------|----------------|----------------|----------------|
A|----------------|5-------7-------|----------------|5-------7-------|
E|5-7-7-7-7-7-7---|----------------|5-7-7-7---7-7---|----------------|

G|----------------|----------------|----------------|----------------|
D|----------------|----------------|----------------|----------------|
A|----------------|5-------7-------|----------------|5-------7-------|
E|5-7-7-7-7-7-7---|----------------|5-7-7-7-7-7-7---|----------------|

Verse #1 [01:08]
G|----------------|----------------|----------------|----------------|
D|----------------|----------------|----------------|----------------|
A|2----2--4--5----|-------5--4--2--|-----------2----|----------------|
E|----------------|2---------------|5-------5-----5-|2-------2-2-2-5-|
"PT Boat..."

G|----------------|----------------|----------------|----------------|
D|----------------|----------------|----------------|----------------|
A|2----2--4--5----|-----5--7--5--2-|----------------|----------------|
E|----------------|2---------------|5-------5---3---|2-------2-------|

Chorus [01:21]
G|----------------|----------------|----------------|----------------|
D|----5-7--5------|----------------|----5-7--5------|----------------|
A|--5--------5----|----------------|--5--------5----|----------------|
E|3------------3--|2-------2-------|3------------3--|2------2--------|
"Baby, baby..."

G|4-------4-------|-----7----------|---11-11-11-----|-----7----------|
D|----------------|5---------4-----|9------------9--|5---------4-----|
A|----------------|----------------|----------------|----------------|
E|----------------|----------------|----------------|----------------|

G|----------------|----------------|----------------|----------------|
D|----------------|----------------|----------------|----------------|
A|----------------|5-------7-------|----------------|5-------7-------|
E|5-7-7-7-7-7-7---|----------------|5-7-7-7-7-7-7---|----------------|

G|----------------|----------------|----------------|----------------|----------------|
D|----------------|----------------|----------------|----------------|----------------|
A|----------------|5-------7-------|----------------|5-------7-------|----------------|
E|5-7-7-7-7-7-7---|----------------|5-7-7-7-7-7-7---|----------------|----------------|

Verse #2 [01:44]
G|----------------|----------------|----------------|----------------|
D|----------------|----------------|----------------|----------------|
A|2----2--4--5----|-------5--4--2--|--------5--4--2-|----------------|
E|----------------|2---------------|5---------------|2--5----2-2-2-5-|
"Sent to spy..."

G|----------------|----------------|----------------|----------------|
D|----------------|----------------|----------------|----------------|
A|2----2--4--5----|-----5--7--5--2-|----------------|----------------|
E|----------------|2---------------|3-------3---5---|2-------2-------|

Chorus [01:57]
G|----------------|----------------|----------------|----------------|
D|-------19-17----|----------------|----17-19-17----|----------------|
A|----17------17--|----------------|--17--------17--|----------------|
E|1515----------15|14-----14-------|15------------15|14------14------|
"Baby, baby..."

G|4-------4-------|-----7----------|---11-11-11-----|-----7----------|
D|----------------|5---------4-----|9------------9--|5---------4-----|
A|----------------|----------------|----------------|----------------|
E|----------------|----------------|----------------|----------------|

End [02:10]
G|----------------|
D|----------------|
A|-2~-------------|
E|----------------|



Get this song at amazon.com      Ebay     Ringtones Ringtones  


Learn to play: Songwriting, Piano, Harmonica, Guitar
Also available at Muzikum: Red Hot Chili Peppers - Havana Affair lyrics

Related Red Hot Chili Peppers Bass Tabs

What It Is bass
Soul To Sqeeze (improved) bass
She's Only 18 (correct) bass
Over Funk bass
Emit Remmus (100% Correct) bass
Sexmaniac (cant Stop) bass
Warped bass
Easily With Triads bass
The Adventures Of Raindance Maggie bass
Hyde Park Bass Solo #2 bass
Dani California (perfect) bass
Righteous And The Wicked bass
Woodstock Intro Bass Solo bass
Nothin But A G Thang Cover bass
Wet Sand (complete) bass
Factory Of Faith bass
Paralell Universe(right Position) bass
On Murcury bass
Another Flea Warm Up bass
Quixoticelixer bass


Guitar Tabs









All tabs are property and copyright of their owners. All tabs provided for educational purposes only. Privacy Policy, DMCA