Red Hot Chili Peppers

Hard To Concentrate Bass Tabs



More from Red Hot Chili Peppers

Red Hot Chili Peppers Tabs
Red Hot Chili Peppers Chords
Red Hot Chili Peppers Bass
Red Hot Chili Peppers Lyrics




Song: Hard To Concentrate
Artist: Red Hot Chili Peppers
Album: Stadium Arcadium

Tabbed By: Marcos Prieto (marcrow_ps@yahoo.es)

Notation legend:

x -> mute.
\ -> slide up. \ It can be after or before the note,
like 1h3,
/ -> slide down. | but if there's no enought space it can be

h -> hammer on. | over or down, like G|-13-...
p -> pull off. / D|--h-...
~ -> let ring.
+ + -> the rhythm of the song, generally 4x4. If there are 2
digits notes
or there's no enough space, I lengthen it,
from (+ + ...) to (+ + ...)
|------| -> repeat this a number of times, for example |3-3-3-3| x4
repeats 3-3-3-3 four times.

Take a look to the 2 last beats from the verse (the D chords) and
all the
beats from the chorus (C & D chords). You must do a bit rest before
playing
the note.

Verse:

Em D B D B
+ + + + + + + + + + + + + + + +
G||--16-14-12-14-12|--16-14-12-14-12|----11---11--11-|----11---11--11-||
D|.----------------|----------------|----------------|----------------.|
A|.----------------|----------------|----------------|----------------.|
E||12--12-12-12-12-|12--12-12-12-12-|-10---107---7---|-10---107---7---||
x2

Chorus:

C G D Em
+ + + + + + + +
G||----12---------------12--12-----|----11----------------14--12----||
D|.--------------------------------|--------------------------------.|
A|.----------------10-----10-------|--------------------------------.|
E||--8-----8-----------------------|--10----10------12------12------|| x3

C G D
+ + + + + + + +
G|----12---------------12--12-----|----11----------------11--11----|
D|--------------------------------|--------------------------------|
A|----------------10-----10-------|--------------------------------|
E|--8-----8-----------------------|--10----10------10------10------|

D
+ + + +
G|--------11------------11--11----|
D|--------------------------------|
A|--------------------------------|
E|10--10------10--10------10------|

Bridge:

C G D
+ + + + + + + + + + + + + + + +
G||----------------|----------------|----------------|----------------||
D|.----------------|----------------|----------------|----------------.|
A|.3~--------------|----------------|----------------|5~--------------.|
E||----------------|----------------|3~--------------|----------------|| x3

C G D
+ + + + + + + + + + + + + + + + + + + +
G|----------------|----------------|----------------|----------------|----------------|
D|----------------|----------------|----------------|----------------|----------------|
A|3~--------------|----------------|----------------|5---5---5-555---|5-555---5-555---|
E|----------------|----------------|3~--------------|----------------|----------------|

Song structure:

Verse x2.
Chorus.
Verse.
Chorus.
Verse.
Chorus.
Bridge.
Verse.
Chorus x2, end with

Em
G|----------------|
D|----------------|
A|----------------|
E|0~--------------|


__ _ __ __ _____ _____ _____
/ | / | / | / `\ / ___/ / __ / ( __/
/ |/ | / /|| / /) / // / / // \ \
/ /| /|| / /^|| / /|| //___ / / // ___) )
/ / | / || / / || / / || / / / ^^/ / /
^^^^^^^^^^^^^^^^^^^^^^^^^^^^^^^^^^^^^^^^^^^^^^^^^



Get this song at amazon.com      Ebay     Ringtones Ringtones  


Learn to play: Songwriting, Piano, Harmonica, Guitar
Also available at Muzikum: Red Hot Chili Peppers - Hard To Concentrate lyrics

Related Red Hot Chili Peppers Bass Tabs

Higher Ground (complete) bass
Easiliy bass
Subway To Venus (complete) bass
Suck My Kiss (in Detail) bass
Bullet Proof bass
Out In La bass
Instrumental #1 bass
Backwoods3 bass
Fleas Funkadelic Jam(woodstock 99') bass
Dani California (perfect) bass
Phat Dance bass
Off The Map : Jam bass
Flea Solo (great!!) bass
Warlock bass
Grand Pappy Du Plenty bass
Midnight bass
Get Up And Jump bass
Nobody Weird Like Me bass
Cabron bass
American Ghost Dance bass


Guitar Tabs









All tabs are property and copyright of their owners. All tabs provided for educational purposes only. Privacy Policy, DMCA