Red Hot Chili Peppers

Good Time Boys Bass Tabs



More from Red Hot Chili Peppers

Red Hot Chili Peppers Tabs
Red Hot Chili Peppers Chords
Red Hot Chili Peppers Bass
Red Hot Chili Peppers Lyrics



INTRO

G--------7-------7 --------
D------------------ 17 times --------
A-----5-------5---- --------
E------------------ --5--7--
s p s p

PRE VERSE


G----------------------------------------------------------------------
D----------------------------------------------------------------------
A----- 5--7---5--7-----------5----------------5--7---5--7--------------
E---0---------------5--6--7-----7--5--3----0--------------6--5--3------
h h h h v

G----------------------------------------------------------------------
D----------------------------------------------------------------------
A------5--7---5--7--------5----------------5-7--5-7--5-7--5-7----------
E---0---------------5--7-----7--5--3----0----------------------5---3---
h h h h h h v

G----------------------------------------------------------------------
D----------------------------------------------------------------------
A------5-7--5-7--5-7-------5---------------5-7--5-7--5-7--5-7----------
E---0----------------5--7-----7--5--3----0---------------------5---3---
h h h h h h h v

G----------------------------------------------------------------------
D----------------------------------------------------------------------
A------5--7---5--7----------5---------------5-7--5-7--5-7--5-7---------
E---0--------------5--6--7-----7--5--3----0----------------------------
h h h h h h

G---6---------6-------
D------7--4-----7--4--
A---------------------
E---------------------

VERSE

G----------------------------------------------------------------------
D----------------------------------------------------------------------
A------5--7---5--7----------5---------------5--7---5--7----------------
E---0---------------5--6--7----7--5--3---0--------------6--5--3--------
h h h h v

G----------------------------------------------------------------------
D----------------------------------------------------------------------
A------5--7---5--7-------5---------------5-7--5-7--5-7--5-7------------
E---0---------------5--7---7--5---3---0----------------------5---3-----
h h h h h h v

G----------------------------------------------------------------------
D-----------------5-----------------------------5----------------------
A-----5--7-7--5-7----7-7--5-7-------5--7-7--5-7----7-6-5---------------
E-----------------------------5--5-----------------------5--5----------

G----------------------------------------------------------------------
D-----------------5-----------------------------5----------------------
A-----5--7-7--5-7----7-7--5-7-------5--7-7--5-7----7-6-5---------------
E-----------------------------5--5-----------------------5--5----------

G----------------------------------------------------------------------
D----------------------------------------------------------------------
A------5--7---5--7----------5---------------5--7---5--7----------------
E---0--------------5--6--7-----7--5--3---0--------------6--5--3--------
h h h h v

G----------------------------------------------------------------------
D----------------------------------------------------------------------
A------5--7---5--7-------5---------------5-7--5-7--5-7--5-7------------
E---0--------------5--7-----7--5--3---0----------------------5---3-----
h h h h h h v


PRE CHORUS

G----------------------------------------------------------------------
D----------------------------------------------------------------------
A------5--7---5--7--------5---------------5-7--5-7--5-7--5-7-----------
E---0---------------5--7-----7--5--3---0----------------------5---3----
h h h h h h v

G----------------------------------------------------------------------
D----------------------------------------------------------------------
A------5--7---5--7--------5------------7-7-7-7-7-7-7-7-7-7-7-7-7-7-7-7-
E---0-------------- 5--7---- 7--5--3-----------------------------------

CHORUS

G---------------------9------------------------------------------------
D------9-------------------------------------9-------------5--------5-
A----------5-7--7-7-7---7-5----------------------5-7-------------------
E-7--7---7------------------7--5-6-7--7--7-7---7-----3-3-3--3--3-3-3--3
s s p s s s s s s p s s s s s s s s s p s s s s s s ps s s sp s

G---------------------9------------------------------------------------
D------9-------------------------------------9-----------5-5------5-5-
A----------5-7--7-7-7---7-5----------------------5-7-------------------
E-7--7---7------------------7--5-6-7--7--7-7---7-----3-3--3-3--3-3-3--3
s s p s s s s s s p s s s s s s s s s p s s s s s psps s spsp s


PRE THING

G----------------------------------------------------------------------
D----------------------------------------------------------------------
A------5-7--5-7--5-7------5--------------5-7--5-7--5-7--5-7------------
E---0----------------5--7---7--5--3---0---------------------5---3------
h h h h h h h v

G----------------------------------------------------
D----------------------------------------------------
A-------------5--7---5--7-----------5----------------
E------0-----------------------5--7------7--5----3--0

G-------3/4-----------------------------------------------3------------
D--5-3------5-3---2/3------------------------------------3-------------
A------5--------5-----3-1--3-1-3/4-3-1-3-1-------1-3-4-5----5-4-3-1----
E------------------------------------------3-1-3--------------------1-3

OUTRO

G----------------------------------------------------------------------
D----------------------------------------------------------------------
A------5--7---5--7-----------5----------------5--7---5--7--------------
E---0---------------5--6--7-----7--5--3----0---------------6--5--3-----
h h h h v

G----------------------------------------------------------------------
D----------------------------------------------------------------------
A------5--7---5--7--------5----------------5-7--5-7--5-7--5-7----------
E---0---------------5--7-----7--5---3---0----------------------5---3---
h h h h h h v

G----------------------------------------------------------------------
D----------------------------------------------------------------------
A------5-7--5-7--5-7--------5----------------5-7--5-7--5-7--5-7--------
E---0-----------------5--7-----7--5---3---0---------------------5---3--
h h h h h h h v


G---------------------------------3/4-------------5-3-5/6-5-3-5-3------
D---------------------------5-3-------5-3--2/3--------------------5-3-5
A----5-7--5-7-------5-----------5--------5----3-1----------------------
E--0----------5-6-7---7-5-3--------------------------------------------
h h


h - hammer on
b - bend string up
r - release bend
/ - slide up
- slide down
v - vibrato (sometimes written as ~)
x play muted note
s - slap
p pop or pull off



Get this song at amazon.com      Ebay     Ringtones Ringtones  


Learn to play: Songwriting, Piano, Harmonica, Guitar
Also available at Muzikum: Red Hot Chili Peppers - Good Time Boys lyrics

Related Red Hot Chili Peppers Bass Tabs

Knock Me Down bass
Californication (Version 2) bass
American Ghost Dance bass
Suck My Kiss bass
Why Don't You Love Me - Bass Tab bass
Black Cross bass
Can't Stop bass
Yertle The Turtle bass
The Brothers Cup From Sheet Music bass
Venice Queen bass
Flea - Bass Solo bass
Blackeyed Blonde bass
Hyde Park: Bass Solo #3 bass
Subway To Venus bass
Out In La bass
Overfunk (b-side) (corrected) bass
Californication (5 String) bass
Stone cold bush intro bass
Strom In A Teacup bass
Under The Bridge "gutar Start" bass


Guitar Tabs









All tabs are property and copyright of their owners. All tabs provided for educational purposes only. Privacy Policy, DMCA