Red Hot Chili Peppers

Give It Away Bass Tabs



More from Red Hot Chili Peppers

Red Hot Chili Peppers Tabs
Red Hot Chili Peppers Chords
Red Hot Chili Peppers Bass
Red Hot Chili Peppers Lyrics

Newsgroups: rec.music.makers.bass
From: danek@Informatik.TU-Muenchen.DE (Mark Danek)
Subject: TAB: Give it away - RHCP


GIVE IT AWAY - RED HOT CHILLI PEPPERS

Ok, someone requested this...
I figured it out from a live bootleg, so it maybe
different from the studio version. It's my first try to
tab something out, perhaps it's still useful.
Listen to the song to get the rhythm...

Intro:

G|----------------------|
D|----5/7---------------|
A|---------5------------|
E|--0--------0-3--------|


Verse (main part):
                                                                             
G|-----7/12------------------7/12---------------7/12-----------------7/12---|  
D|--------------------------------------------------------------------------|  
A|--------------------------------------------------------------------------|  
E|-5-----------0^8-0^8---5------------0^8---5----------0^8-0^8---5----------|  
                                                                  
Slap E-string notes. Repeat this line 2x with little fills 
at the end, e.g.

Fills:                 or:                     Then once more verse line, and                                                                
G|-12-14-12-17-12-14-|    G|-------------|	  
D|-------------------|    D|-------0-2-0-|
A|-------------------|    A|---0-3-------|
E|-------------------|    E|-3-----------|
                                             
Refrain:
                                  
G|--------------------------------------------------------------------------|  
D|--------------------------------------------------------------------------|  
A|--------------------------------------------------------------------------|  
E|-5--------0^5--------0^5--------0^5---------------------------------------|  

Again verse with fills like:

G|------19---17---|	|---------------------------------------------------|  
D|-19-------------|	|-2-------------------------------------------------|  
A|----------------|	|---5-3-5-3-----------------------------------------|  
E|----------------|	|---------------------------------------------------|  
                                      
Then refrain, refrain with drums only.
THen comes the solo part:
                                         
G|--------------------------------------------------------------------------|  
D|--------------------------------------------------------------------------|  
A|-----5/10---------------5/10--------------5/10--------------5/10----------|  
E|-0---------0^3-0^3--0---------0^3-0^3--0--------0^3-0^3--0----------------|  
                                                                 
Again with fills at the end:
                     and:                and at the end:
G|-2^4-2^0-2^0-----|	 |-------------|	----------------------------|  
D|-------------2^0-|	 |-------------|	--2^0-----------------------|  
A|-----------------|	 |-----0-2-0---|	------2^0-------------------|  
E|-----------------|	 |-0-3-------3-|	----------3^2-3-4-5---------|

PLay the verse again (the A from the last solo fill as first note), fills are:
                                                                               
G|----------|	|-17^14--------------------------------|  
D|----------|	|-------17^14--------------------------|  
A|----5^3---|	|-------------17-----------------------|  
E|--5-----5-|	|--------------------------------------|  

progression is: verse, refrain drums only, solo riff 1x,verse
                
verse fills:

G|----------|	|-----12^9----------|	|--14--16--17------------|  
D|----------|	|-12-------12^9-----|	|------------------------|  
A|----5^3---|	|----------------12-|	|------------------------|  
E|--5-----5-|	|-------------------|	|------------------------|  
   
play verse riff over refrain (piano)

End riff:
                                           
G|--------------------------------------|  
D|--------------------------------------|  
A|--------7-5-------------7-5--------5--|  
E|-5-5--0-----8----5-5--0-----8--5-8----|                                   

repeat this riff 4x
extro is just jamming on A, i think.


ok, that's it.
hope it helps.

by the way, if someone could post/email any fIREHOSE or
minutemen tabs...that would be 	GREAT!!!	

keep rockin'

mark

p.s. uh, the notation...
	5/10 means slide from 5 to 10
	2^4 hammer-on 
	2^0 pull-off
Get this song at amazon.com      Ebay     Ringtones Ringtones  


Learn to play: Songwriting, Piano, Harmonica, Guitar
Also available at Muzikum: Red Hot Chili Peppers - Give It Away lyrics

Related Red Hot Chili Peppers Bass Tabs

Under The Bridge (live) bass
Slane Castle Jam 2 bass
Time bass
Flea Bass Solo:arpeggiating bass
Knock Me Down bass
Readymade bass
Blood Sugar Sex Magic bass
Salute To Kareem bass
Why Don't You Love Me - Bass Tab bass
By The Way (perfect) bass
Simple Nice bass
Song: Savior bass
Brandy bass
Shallow Be Thy Game bass
Parellel Universe bass
Nothin But A G Thang Cover bass
Easily With Triads bass
Grand Pappy Du Plenty bass
Breaking The Girl! bass
Otherside Perfect Bass Tab bass


Guitar Tabs









All tabs are property and copyright of their owners. All tabs provided for educational purposes only. Privacy Policy, DMCA