Red Hot Chili Peppers

Give It Away Live Tabs



More from Red Hot Chili Peppers

Red Hot Chili Peppers Tabs
Red Hot Chili Peppers Chords
Red Hot Chili Peppers Bass
Red Hot Chili Peppers Lyrics



e|----------8888-----10/11-10/11-10/11-10/11-10/11----------------------|
B|-------------------10/11-10/11-10/11-10/11-10/11----------------------|
G|----------------------------------------------------------------------|
D|----7-7---------------------------------------------------------------|
A|----------------------------------------------------------------------|
E|----------------------------------------------------------------------|

e|-----------8888-------1717171717171717--|
B|----------------------------------------|
G|----------------------------------------|
D|----7-7---------------------------------|
A|----------------------------------------|
E|----------------------------------------|
verse
e|----------------------------------------|
B|----------------------------------------|
G|-------7-6-5----------7-8-9-------------|
D|----7-7-------5-5-7--7------------------|
A|----------------------------------------|
E|----------------------------------------|

e|----------------------------------------|
B|----------------------------------------|
G|--------7-6-5---------7-5---------------|
D|----7-7-------5-5-7--7----5-------------|x3
A|----------------------------------------|
E|----------------------------------------|
chours fill
e|---------------------------88887--121212121212121210----|keep strumming
B|----------------------------------121212121212121210----|and you will hear
G|-----6---------------------------------------------------|this fill.
D|-----7---------------------------------------------------|(only the part
A|-----7---------------------------------------------------|under the word
E|-----5---------------------------------------------------|fill)
verse 2
e|----------------------------------------------------------------|
B|----------------------------------------------------------------|
G|------7b(9)5------7-8-9-------7b(9)-5----------7p6p5-7p6p5-5----|
D|---7-7-------5-7-7---------7-7--------5-7-7---------------------|
A|----------------------------------------------------------------|
E|----------------------------------------------------------------|

e|-------------------------------------------------------------------|
B|--------------------8----------------------------------------------|
G|-------7b(9)5----7h9-7p5-----7b(9)5-----7p5-----7b(9)5-----7-8-9---|
D|---7-7--------5-7---------7-7------5-7-7---7-5-5------5-7-7--------|
A|-------------------------------------------------------------------|
E|-------------------------------------------------------------------|

e|--------------------------------|
B|--------------------------------|
G|--------------------------------|
D|-----7b(9)5-----7-5-------------|
A|--7-7------5-7-7---5------------|
E|--------------------------------|

chorus

solo-
e|--------------------------------------------------------------------------|
B|--17-15-17----------------------------------------------------------------|
G-----------16-16-16-14-16--------------------------------------------------|
D|------------------------14-14-14-17-16-17-12-12-14p12---------------------|
A|-----------------------------------------------------14-12h14-12h14-14-14-|
E|--------------------------------------------------------------------------|

e|--------------------------------------------------------------|
B|----17-15-17--------------------------------------------------|
G|------------16-16-16-16-14-16---------------------------------|
D|-----------------------------14-14-14-17-16-17----------------|
A|----------------------------------------------17-17-19b(21)19-|
E|--------------------------------------------------------------|
vearse 3
e|--------------------------------------------8-8-8-7-5--|
B|--------------------------------------------8-8-8-7-5--|
G|------7b(9)5-----7b(9)5-------7b(9)5-------------------|
D|---7-7------5-7-7------5---7-7------5-7----------------|
A|-------------------------------------------------------|
E--------------------------------------------------------|

e|-----------------------------------------------------|
B|-----------------------------------------------------|
G|------7b(9)5-------------7b(9)5----------------------|
D|---7-7------5-7-5-5-5-7-7-------stop-----------------|
A|------------------------------------------5-3--------|
E|---------------------------------------------3-------|

e|-----------------7-7-8----------------------|
B|-----------------7-7-8----------------------|
G|--------------------------------------------|
D|-------7b(9)5-------------7b(9)5-----7-5----|
A|----7-7------5-7-------7-7------5-7-7---5---|
E|--------------------------------------------|
chorus
you don't play any thing at the chorus it is only the drums
but the solo after , i am not going to tab it out becuse it is too complcated.
after th solo repeat the verse that you played at the start.

e|------88888-77-55---------------------------|
B|------88888-77-55---------------------------|
G|--------------------------------------------|
D|--------------------------------------------|x4
A|--------------------------------------------|
E|--------------------------------------------|
then the slow bit would come
you play this another
e|------------------------------------|
B-------------------------------------|
G|----------7-6-5-------7-6-5-5-7-7---|
D|----7-7-77------7-7-77-----7--------|
A|----7-7-77------7-7-77--------------|
E|----5-5-55------5-5-55--------------|
that all . i am not sure that this is 100% complet .
it is my first tab.


| / slide up
| slide down
| h hammer-on
| p pull-off
| ~ vibrato
| + harmonic
| x Mute note
===============================================================================


Get this song at amazon.com      Ebay     Ringtones Ringtones  


Learn to play: Songwriting, Piano, Harmonica, Guitar
More Red Hot Chili Peppers lyrics available at Muzikum

Related Red Hot Chili Peppers Tabs

Cabron Bass tabs
By The Way tabs
Other side tabs
Pea tabs
Especialy In Michigan tabs
Under The Bridge - Unplugged tabs
Magic Johnson Bass tabs
Over Funk tabs
Mellowship Slinky tabs
Slow Cheetah tabs
Parallel Universe tabs
Hey Bass tabs
Throw Away Your Television Solo tabs
By The Way (Version 2) tabs
Walkabout tabs
Behind The Song tabs
Road Trippin Tab Nd Lyrics tabs
Aeroplane tabs
Get Up And Jump tabs
Instrumental #1 tabs


Guitar Tabs









All tabs are property and copyright of their owners. All tabs provided for educational purposes only. Privacy Policy, DMCA

Online converter - videoconverter.com