Red Hot Chili Peppers

Fortune Faded Tabs



More from Red Hot Chili Peppers

Red Hot Chili Peppers Tabs
Red Hot Chili Peppers Chords
Red Hot Chili Peppers Bass
Red Hot Chili Peppers Lyrics

Song: Fortune Faded

Artist: Red Hot Chili Peppers





I don\'t know why but the main riff to this great song is always tabbed out with harder intervals between frets than what is necessary.



Intro: (0:00)



F#5

E ---------------

B 222222222222222

G 333333333333333

D 444444444444444

A 444444444444444

E 222222222222222



Main Riff: (0:08)



Bm

E ---------------------------

B ---------------------------

G -----11----------11--------

D 9-------11--9--------11--9-

A ---------------------------

E ---------------------------



D A

E -------------------9--9--9-

B 10---10---10---------------

G ---11---11---11------------

D ---------------------------

A ---------------------------

E ---------------------------



Bm

E ---------------------------

B ---------------------------

G -----11----------11--------

D 9-------11--9--------11--9-

A ---------------------------

E ---------------------------



D A

E ---------------------------

B 10--------10---------------

G ---11--------11------------

D ---------------------------

A ---------------------------

E ---------------------------



Verse: (0:24)



Bm

E ---------------------------

B ---------------------------

G ---------------------------

D ---------------------------

A ---------------------------

E ---------------------------



D A

E 10-10-10--------5-5-5------

B 10-10-10--------5-5-5------

G 11-11-11--------6-6-6------

D 12-12-12--------7-7-7------

A 12-12-12--------7-7-7------

E 10-10-10--------5-5-5------



Bm

E ---------------------------

B ---------------------------

G ---------------------------

D ---------------------------

A ---------------------------

E ---------------------------



D A

E 10-10-10--------5-5-5------

B 10-10-10--------5-5-5------

G 11-11-11--------6-6-6------

D 12-12-12--------7-7-7------

A 12-12-12--------7-7-7------

E 10-10-10--------5-5-5------



Main Riff: (0:40)



Bm

E ---------------------------

B ---------------------------

G -----11----------11--------

D 9-------11--9--------11--9-

A ---------------------------

E ---------------------------



D A

E ---------------------------

B 10--------10---------------

G ---11--------11------------

D ---------------------------

A ---------------------------

E ---------------------------



Verse: (0:49)



Bm

E ---------------------------

B ---------------------------

G ---------------------------

D ---------------------------

A ---------------------------

E ---------------------------



D A

E 10-10-10--------5-5-5------

B 10-10-10--------5-5-5------

G 11-11-11--------6-6-6------

D 12-12-12--------7-7-7------

A 12-12-12--------7-7-7------

E 10-10-10--------5-5-5------



Bm

E ---------------------------

B ---------------------------

G ---------------------------

D ---------------------------

A ---------------------------

E ---------------------------



D A

E 10-10-10--------5-5-5------

B 10-10-10--------5-5-5------

G 11-11-11--------6-6-6------

D 12-12-12--------7-7-7------

A 12-12-12--------7-7-7------

E 10-10-10--------5-5-5------



Main Riff: (1:05)



Bm

E ---------------------------

B ---------------------------

G -----11----------11--------

D 9-------11--9--------11--9-

A ---------------------------

E ---------------------------



D A

E ---------------------------

B 10--10--10----10--10--10---

G --11--11--11----11--11--11-

D ---------------------------

A ---------------------------

E ---------------------------



Chorus: (1:13)



Two guitars in this bit. Electric and Acoustic both play the same thing. If you have just one guitar in your band then you could mike up the strings of the electric.



A G B

E 555555555-33333333--7777777777777777

B 555555555-33333333--7777777777777777

G 666666666-44444444--8888888888888888

D 777777777-55555555--9999999999999999

A 777777777-55555555--9999999999999999

E 555555555-33333333--7777777777777777



A G B

E 555555555-33333333--7777777777777777

B 555555555-33333333--7777777777777777

G 666666666-44444444--8888888888888888

D 777777777-55555555--9999999999999999

A 777777777-55555555--9999999999999999

E 555555555-33333333--7777777777777777



Main Riff: (1:29)



Bm

E ---------------------------

B ---------------------------

G -----11----------11--------

D 9-------11--9--------11--9-

A ---------------------------

E ---------------------------



D A

E -------------------9--9--9-

B 10---10---10---------------

G ---11---11---11------------

D ---------------------------

A ---------------------------

E ---------------------------



Bm

E ---------------------------

B ---------------------------

G -----11----------11--------

D 9-------11--9--------11--9-

A ---------------------------

E ---------------------------



D A

E ---------------------------

B 10--------10---------------

G ---11--------11------------

D ---------------------------

A ---------------------------

E ---------------------------



Verse 2 (1:45)



Bm

E ---------------------------

B ---------------------------

G ---------------------------

D ---------------------------

A ---------------------------

E ---------------------------



D A

E ---------------------------

B ---------------------------

G ---------------------------

D 12-12-12--------7-7-7------

A 12-12-12--------7-7-7------

E 10-10-10--------5-5-5------



Bm

E ---------------------------

B ---------------------------

G ---------------------------

D ---------------------------

A ---------------------------

E ---------------------------



D A

E ---------------------------

B ---------------------------

G ---------------------------

D 12-12-12--------7-7-7------

A 12-12-12--------7-7-7------

E 10-10-10--------5-5-5------



Main Riff: (2:01)



Bm

E ---------------------------

B ---------------------------

G -----11----------11--------

D 9-------11--9--------11--9-

A ---------------------------

E ---------------------------



D A

E ---------------------------

B 10--10--10----10--10--10---

G --11--11--11----11--11--11-

D ---------------------------

A ---------------------------

E ---------------------------



Chorus: (2:09)



A G B

E 555555555-33333333--7777777777777777

B 555555555-33333333--7777777777777777

G 666666666-44444444--8888888888888888

D 777777777-55555555--9999999999999999

A 777777777-55555555--9999999999999999

E 555555555-33333333--7777777777777777



A G B

E 555555555-33333333--7777777777777777

B 555555555-33333333--7777777777777777

G 666666666-44444444--8888888888888888

D 777777777-55555555--9999999999999999

A 777777777-55555555--9999999999999999

E 555555555-33333333--7777777777777777





Bridge: (2:25)



No guitar in this bit. You can just play around with feedback however to recreate that whoosing noise.



Bm D A

E ---------------------------

B ---------------------------

G --------No Guitar----------

D ---------------------------

A ---------------------------

E ---------------------------





Bm D A

E ---------------------------

B ---------------------------

G --------No Guitar----------

D ---------------------------

A ---------------------------

E ---------------------------



F#5

E ---------------

B ---------------

G ---------------

D 444444444444444

A 444444444444444

E 222222222222222



Chorus: (2:49)



A G B

E 555555555-33333333--7777777777777777

B 555555555-33333333--7777777777777777

G 666666666-44444444--8888888888888888

D 777777777-55555555--9999999999999999

A 777777777-55555555--9999999999999999

E 555555555-33333333--7777777777777777





A G B

E 555555555-33333333--7777777777777777

B 555555555-33333333--7777777777777777

G 666666666-44444444--8888888888888888

D 777777777-55555555--9999999999999999

A 777777777-55555555--9999999999999999

E 555555555-33333333--7777777777777777



A G B

E 555555555-33333333--7777777777777777

B 555555555-33333333--7777777777777777

G 666666666-44444444--8888888888888888

D 777777777-55555555--9999999999999999

A 777777777-55555555--9999999999999999

E 555555555-33333333--7777777777777777



A G B

E 555555555-33333333--7---------------

B 555555555-33333333--7---------------

G 666666666-44444444--8---------------

D 777777777-55555555--9---------------

A 777777777-55555555--9---------------

E 555555555-33333333--7---------------





Get this song at amazon.com      Ebay     Ringtones Ringtones  


Learn to play: Songwriting, Piano, Harmonica, Guitar
Also available at Muzikum: Red Hot Chili Peppers - Fortune Faded lyrics

Related Red Hot Chili Peppers Tabs

Million Miles Of Water tabs
Around The World4 tabs
The Power Of Equality tabs
Strip My Mind Solo tabs
Otherside Intro! tabs
Tearjecker tabs
Make You Feel Better Bass tabs
Charlie Bass tabs
Rontime tabs
Brandy Live tabs
Give It Away tabs
Warm Tape Bass tabs
Tiny Dancer Live Cover tabs
I Could Die For You (5) tabs
Around The World Outro tabs
The Abbey Road tabs
The Righteous And The Wicked tabs
Funky Monks Bass tabs
Get On Top tabs
Hump De Bump tabs


Guitar Tabs









All tabs are property and copyright of their owners. All tabs provided for educational purposes only. Privacy Policy, DMCA