Red Hot Chili Peppers

Flea Solo (@ Multi-show Viva) Bass Tabs



More from Red Hot Chili Peppers

Red Hot Chili Peppers Tabs
Red Hot Chili Peppers Chords
Red Hot Chili Peppers Bass
Red Hot Chili Peppers Lyrics




Red Hot Chili Peppers
Flea Solo------"I'm A Little Flea"

Tabbed by: Steve aka Skele

G----------------------------------------------------------| 2x
D--3~---3-3~---3-3~---3-3~---3-3~---3-3~---3---------------|
A--------------------------------------------4~---4-4~---4-|
E----------------------------------------------------------|

G------------------------------|
D------------------------------|
A--3~---3-3~---3-1~---1-1~---1-|
E------------------------------|

G----------------------------------------------------------| 3x
D--3~---3-3~---3-------------------------------------------|
A----------------4~---4-4~---4-3~---3-3~---3-1~---1-1~---1-|
E----------------------------------------------------------|



G-------------------------------------------------------------------|
D-0/5~---5-5~---5-8~---8-8~---8-3~---3-3~---0-3~--0-3~-0-3~-0-3h4h5-|
A-------------------------------------------------------------------|
E-------------------------------------------------------------------|

G------------------------------------------------------------|
D-5~---5-5~---5-8~---8-8~---8-3~---3-3~---3-3-3~--3~--3~--3~-|
A------------------------------------------------------------|
E------------------------------------------------------------|



G------------------------------|
D------------------------------|
A-7~---7-7~---7-3~---3-5--8--7-|
E------------------------------|

G------------------------------|
D------------------------------|
A-7~---7-7~---7-3~---3--5--0---|
E------------------------------|

G------------------------------|
D------------------------------|
A-7~---7-7~---7-3~---3-5--8--7-|
E------------------------------|


G--------------------------------------------|
D--------------------------------------------|
A-7~---7-7~---7-5~----8-8--7-----7-----7---7-|
E-----------------------------0-----0-----0--|

G-----------------------------|
D-----------------------------|
A-7~---7-7~---7-5~----8-8--7~-|
E-----------------------------|



Get this song at amazon.com      Ebay     Ringtones Ringtones  


Learn to play: Songwriting, Piano, Harmonica, Guitar
More Red Hot Chili Peppers lyrics available at Muzikum

Related Red Hot Chili Peppers Bass Tabs

Rolling Sly Stone Live bass
Havana Affair bass
Pea bass
Felas Cock bass
By The Way (at Last The Real Tab!!) bass
Mellowship In Slinky B Major bass
Salute To Kareem bass
Sexy Mexican Maid bass
Black Cross bass
Don t forget me bass
Dani Califoina bass
Why Dont You Love Me bass
Midnight bass
Porcelain bass
Green Heaven bass
Under The Bridge (not Live) bass
All Around The World (excently Perfect) bass
Rolling Sly Stone bass
Sir Psycho Sexy bass
Snow bass


Guitar Tabs









All tabs are property and copyright of their owners. All tabs provided for educational purposes only. Privacy Policy, DMCA