Red Hot Chili Peppers

Flea Bass Solo Fix Bass Tabs



More from Red Hot Chili Peppers

Red Hot Chili Peppers Tabs
Red Hot Chili Peppers Chords
Red Hot Chili Peppers Bass
Red Hot Chili Peppers Lyrics



this tab is exacly the same as all the others besides the intro of it

FIX STARTS NOW :
0:00
G-|---9---|----------------------5h7-|------------------5~-| (2x)
D-|*--7--*|---------------5----------|-------------5-------|
A-|*-----*|----------5h7----7--------|-------5h7-----7-----|
E-|-------|12/0-x-x------------------|-0-x-x---------------|

0:11
G-|-------------------5h7-|-------------------|
D-|-------------5---------|-------------------|
A-|-------5h7-----7-------|-----------5-5-5h7-|
E-|-0-x-x-----------------|-0-x-x-x-x---------|

0:15
G-|-------------------5h7-|------------------5~-|
D-|-------------5---------|-------------5-------|
A-|-------5h7-----7-------|-------5h7-----7-----|
E-|-0-x-x-----------------|-0-x-x---------------|

0:18
G-|-------------------5h7-|---------------------|
D-|-------------5---------|---------------------|
A-|-------5h7-----7-------|-----------5-5-5-5---|
E-|-0-x-x-----------------|-0-x-x-x-x-----------|

FIX ENDS

0:22
G-|-----------------------|-----------| (3x)
D-|---------------7---7h9-|---10---12-|
A-|-----------7h9---9-----|-----------|
E-|-7-7-7-7-7-------------|-x----x----|

0:29
G-|--------------------------------|-----------------------| (7x)
D-|-----12-10----------10----10h12-|-----12-10----------10-|
A-|-----------10-10h12----12-------|-----------10-10h12----|
E-|-0-x----------------------------|-0-x-------------------|

0:43
G-|--------------------------------|--------------------------|
D-|-----13-11----------11----11h13-|-----13-11----------13-11-|
A-|-----------11-11h13----13-------|-----------11-11h13-------|
E-|-0-x----------------------------|-0-x----------------------|

0:46
G-|--------------------------------|-----------------------|
D-|-----13-11----------11----11h13-|-----13-11----------11-|
A-|-----------11-11h13----13-------|-----------11-11h13----|
E-|-0-x----------------------------|-0-x-------------------|

0:50
G-|--------------------------------|-----------------------| (3x)
D-|-----12-10----------10----10h12-|-----12-10----------10-|
A-|-----------10-10h12----12-------|-----------10-10h12----|
E-|-0-x----------------------------|-0-x-------------------|

0:58
G-|--5/7-9-7-9-10-9-10-12-10-12-14--|--14b(1)-----| (3x)
D-|*-------------------------------*|*-----------*|
A-|*-------------------------------*|*--------13-*|
E-|---------------------------------|-------------|

1:15
G-|--------------------------------|-----------------------|
D-|-----12-10----------10----10h12-|-----12-10----------10-|
A-|-----------10-10h12----12-------|-----------10-10h12----|
E-|-0-x----------------------------|-0-x-------------------|

1:19
G-|--------------------------------|------------------------------|
D-|-----12-10----------10----10h12-|-----12-10--------------10h12-|
A-|-----------10-10h12----12-------|-----------10-10h12-----------|
E-|-0-x----------------------------|-0-x----------------0-0-------|

1:22
G-|--------------------------------|---------------------------| (3x)
D-|-----12-10----------10----10h12-|-----12-10----------10b(1)-|
A-|-----------10-10h12----12-------|-----------10-10h12--------|
E-|-0-x----------------------------|-0-x-----------------------|

1:33
G-|--5h7---------2-0-3---7-5-----0-3-2-----------7-0-3---3-2-0-7-5--------|
D-|*-----0-2-3-0-------0-----2-3-------0-3-5-3-0-------0-----------3-2-0-*|
A-|*---------------------------------------------------------------------*|
E-|-----------------------------------------------------------------------|

1:54
G-|----3-2-0-7-5-2-3-------7-5-2-3-2---7-5-2-0-3-2-0-------3-2-0-7-5-3-2-0--------|
D-|*-0---------------0-3-2-----------0---------------3-2-0-----------------3-2-0-*|
A-|*-----------------------------------------------------------------------------*|
E-|-------------------------------------------------------------------------------|

2:07
G-|-----|---------|--9---|
D-|-----|*-------*|*-7-*-|
A-|-----|*-7b(1)-*|*---*-|
E-|-0-0-|---------|------|

2:22
G-|-------------------5h7-|-------------------5-| (3x)
D-|-------------5-5-------|-------------5-5-----|
A-|-------5-5-7-----7-----|-------5-5-7-----7---|
E-|-0-x-x-----------------|-0-x-x---------------|

2:32
G-|-------------------5h7-|-----------------|
D-|-------------5-5-------|-----------------|
A-|-------5-5-7-----7-----|---------5-5h7---|
E-|-0-x-x-----------------|-0-x-x-x-------5-|

------------
BASS TAB CHARACTERS EXPLANATION

/ = Slide up
= Slide down
10h11 = Hammer on from fret 10 to fret 11
11p10 = Pull off from fret 11 to fret 10
x = Mute string
br = Bend / Release
~10 = Vibrato on the following note
S = Slap note
P = Pop note



Get this song at amazon.com      Ebay     Ringtones Ringtones  


Learn to play: Songwriting, Piano, Harmonica, Guitar
More Red Hot Chili Peppers lyrics available at Muzikum

Related Red Hot Chili Peppers Bass Tabs

Spicy Salsa Jam bass
Otherside bass
Subterranean Homesick Blues bass
Right On Time bass
By The Way(improved) bass
Organic Anti-beat Box Band bass
Lets Make Evil bass
Hyde Park Bass Solo #2 bass
Funky Flea Solo bass
Fire bass
Sir Psycho Sexy bass
Quixoticelixer bass
Charlie bass
Love Rollercoaster bass
Suck My Kiss (in Detail) bass
Under The Bridge Intro On Bass bass
What It Is (ninas Song) bass
Mellowship Slinky In B Major bass
Warped bass
Flea:funk Song bass


Guitar Tabs









All tabs are property and copyright of their owners. All tabs provided for educational purposes only. Privacy Policy, DMCA