Red Hot Chili Peppers

Felas Cock Bass Tabs



More from Red Hot Chili Peppers

Red Hot Chili Peppers Tabs
Red Hot Chili Peppers Chords
Red Hot Chili Peppers Bass
Red Hot Chili Peppers Lyrics



Fela's Cock
Artist: Red Hot Chili Peppers
Album: Plasma Shaft
Tabbed by:Funkifleadude
Bass Tab

This is my first tab, email me and let me know how it is.



Fig. 1 & 2

G-|-----------------------------|-----------------------------|-

D-|--5----3-3-3-3---------------|--5----3-3-3-3---------------|-

A-|----------------5-5-5-3------|----------------5-5-5-3------|-

E-|------------------------5-3--|------------------------5-3--|-

...or like this.

G-|-------------------------------|-------------------------------|-

D-|--5----3-3-3-3-----------------|--5----3-3-3-3-----------------|-

A-|----------------5-5-5-3-(0)----|----------------5-5-5-3-(0)----|-

E-|----------------------------3--|----------------------------3--|-

This for Fig. 3

G F C

G-|---------|---------|---------|----5----|-

D-|----5----|----3----|---------|---------|-

A-|---------|---------|----3----|---------|-

E-|---------|---------|---------|---------|-

please rate this tab
any questions email Prison_bass_player@yahoo.com

Taken from The BassMasta -- http://www.tabs-database.com



Get this song at amazon.com      Ebay     Ringtones Ringtones  


Learn to play: Songwriting, Piano, Harmonica, Guitar
Also available at Muzikum: Red Hot Chili Peppers - Felas Cock lyrics

Related Red Hot Chili Peppers Bass Tabs

What Is Soul (from Off The Map) bass
Emit Remmus (100% Correct) bass
Funky Monks bass
Fleas Warm Up bass
Tell Me Baby (10000% Correct) bass
Can't Stop bass
Castle Made Of Sand bass
Californication (easy) bass
Dr Funkenstein bass
Hyde Park Bass Solo #2 bass
Around The World bass
Off The Map Around The World bass
Flea Solo (@ Multi-show Viva) bass
By The Way (Version 2) bass
Storm In A Teacup bass
FelaĊ½s Cock bass
Parallel Universe (%100 Perfect) bass
Hey bass
Nobody Weird Like Me bass
The Greeting Song bass


Guitar Tabs









All tabs are property and copyright of their owners. All tabs provided for educational purposes only. Privacy Policy, DMCA