Red Hot Chili Peppers

FelaŽs Cock Bass Tabs



More from Red Hot Chili Peppers

Red Hot Chili Peppers Tabs
Red Hot Chili Peppers Chords
Red Hot Chili Peppers Bass
Red Hot Chili Peppers Lyrics



Author/Artist: Red Hot Chili Peppers
Title: Felas Cock
Album: Blood Sugar Sex Magik B-side
Transcribed by: Greenie 12
Email: onkel44@hotmail.com

http://www.geocities.com/onkel442003/index.html



Fig. 1


G-|------------------------------------|------------------------------------|-
D-|------------------------------------|------------------------------------|-
A-|--10----10-10-10-10-8-8-8-----------|--10----10-10-10-10-8-8-8-----------|-
E-|--------------------------10--10-8--|--------------------------10--10-8--|-



Variation:


G-|---------------------------------------|------------------------------------|-
D-|-------------------------8-10--8-------|------------------------------------|-
A-|--10----10-10-10-10-8-10---------10-8--|--10----10-10-10-10-8-8-8-----------|-
E-|---------------------------------------|--------------------------10--10-8--|-



Fig. 2

G F C G
G-|-----------------|----------------|---------------|-----------------|-
D-|-----------------|----------------|---------------|-----------------|-
A-|--10-------------|--8-------------|---------------|--10-------------|-
E-|-----------------|----------------|--8------------|-----------------|-



Outro:


G-|-------------------------------|--------------------------------------|-
D-|-------------------------------|-------------------------------3-4-5--|-
A-|--10---------------------------|--------2--2--3--3--4--4--5-----------|-
E-|-------------------------------|--3--3--------------------------------|-


G-|-----------------------------|-----------------------------|-
D-|-----------------------------|-----------------------------|-
A-|-----------------------------|-----------------------------|-
E-|--3--------3/15--------------|-----------------------------|-

Taken from The BassMasta -- http://www.tabs-database.com



Get this song at amazon.com      Ebay     Ringtones Ringtones  


Learn to play: Songwriting, Piano, Harmonica, Guitar
More Red Hot Chili Peppers lyrics available at Muzikum

Related Red Hot Chili Peppers Bass Tabs

On Mercury bass
Animal Bar Bass bass
Battle Ship bass
Spell Correctly bass
Can't Stop bass
Shes Only 18 bass
Tell Me Baby(100% Accurate) bass
By The Way::::::101% Correct, No Questions Asked bass
By The Way (perfect) bass
Emit Remmus (100% Correct) bass
Flea Bass Solo Fix bass
Under The Brgidge(downtown) bass
Ethiopia bass
Cant Stop bass
Roller coaster of love bass
My Lovely Man bass
Fire bass
Body Of Water bass
Californication (with Bass N Guitar On Bass) bass
Dosed (perfect ;) bass


Guitar Tabs









All tabs are property and copyright of their owners. All tabs provided for educational purposes only. Privacy Policy, DMCA